Cifra Club

Aprenda

All Over Me

Drowning Pool

Cifra: Principal (violão e guitarra)
tom: Gm
Tuning: (B F# B E G# c#)

intro
E|-----------------------------------------------------------------------------------------|
B|-----------------------------------------------------------------------------------------|
G|-7~-----8~------7~-----8-8-8-8-8-8-8-8/12-12-12-12-12-12-12-12---------------------------|
D|-X------X-------X------X-X-X-X-X-X-X-X-X--X--X--X--X--X--X--X----------------------------|
A|-5~-----6~------5~-----6-6-6-6-6-6-6-6/10-10-10-10-10-10-10-10---------------------------|
E|-----------------------------------------------------------------------------------------|
and then
E|----------------------------------------------------------------------------------------------|
B|----------------------------------------------------------------------------------------------|
G|7-7-7-7-7-7-7-7-7-7-7-7-7-7-7-7-8-8-8-8-8-8-8-8-8-8-8-8-8-8-8-8-7-7-7-7-7-7-7-7-7-7-7-7-7-7-7-|
D|X-X-X-X-X-X-X-X-X-X-X-X-X-X-X-X-X-X-X-X-X-X-X-X-X-X-X-X-X-X-X-X-X-X-X-X-X-X-X-X-X-X-X-X-X-X-X-|
A|5-5-5-5-5-5-5-5-5-5-5-5-5-5-5-5-6-6-6-6-6-6-6-6-6-6-6-6-6-6-6-6-5-5-5-5-5-5-5-5-5-5-5-5-5-5-5-|
E|----------------------------------------------------------------------------------------------|

E|-------------------------------------------------------------------------------|
B|-------------------------------------------------------------------------------|
G|-7-8-8-8-8-8-8-8-8-8-8-8-8-8-8-8-8-7-7-7-7-7-7-7-7-7-7-7-7-7-7-7-7-------------|
D|-X-X-X-X-X-X-X-X-X-X-X-X-X-X-X-X-X-X-X-X-X-X-X-X-X-X-X-X-X-X-X-X-X-------------|
A|-5-6-6-6-6-6-6-6-6-6-6-6-6-6-6-6-6-5-5-5-5-5-5-5-5-5-5-5-5-5-5-5-5-------------|
E|-------------------------------------------------------------------------------|

E|-------------------------------------------------------------------------------|
B|-------------------------------------------------------------------------------|
G|-8-8-8-8-8-8-8-8/12-12-12-12-12-12-12-12---------------------------------------|
D|-X-X-X-X-X-X-X-X--X--X--X--X--X--X--X--X---------------------------------------|
A|-6-6-6-6-6-6-6-6/10-10-10-10-10-10-10-10---------------------------------------|
E|-------------------------------------------------------------------------------|

verse
E|---------------------------------------------------------------------------|0
B|---------------------------------------------------------------------------|
G|---------------------------------------------------------------------------|
D|-----0------1-------0------0--3-3-XX-3-3-XX-3-3----------------------------|
A|-0-0-0--1-1-1--1-11-0--0-0-0--3-3-XX-3-3-XX-3-3----------------------------|
E|-0-0-0--1-1-1--1-11-0--0-0-0--3-3-XX-3-3-XX-3-3----------------------------|X2
   * *    * *    * **    * *

Chorus
E|---------------------------------------------------------------------------|
B|---------------------------------------------------------------------------|
G|---------------------------------------------------------------------------|
D|-0----0-0-0-0---1----1-1-1-1---0---0-0-0-0---3----3-3-3-3------------------|
A|-0----0-0-0-0---1----1-1-1-1---0---0-0-0-0---3----3-3-3-3------------------|
E|-0----0-0-0-0---1----1-1-1-1---0---0-0-0-0---3----3-3-3-3------------------|

and then
E|--------------------------------------------------------------------|
B|--------------------------------------------------------------------|
G|--------------------------------------------------------------------|
D|-0----0-0-0-0---1----1-1-1-1---0---0-0-0-0---3----------------------|
A|-0----0-0-0-0---1----1-1-1-1---0---0-0-0-0---3----------------------|
E|-0----0-0-0-0---1----1-1-1-1---0---0-0-0-0---3----------------------|

Fill
E|-------------------------------------------------------------------------------|
B|-------------------------------------------------------------------------------|
G|---7---7---7---8-8-8-8-5-5-5-5---7---7---7---8-8-8-8/12-12-12-12---------------|
D|---X---X---X---X-X-X-X-X-X-X-X---X---X---X---X-X-X-X-X--X--X--X----------------|
A|---5---5---5---6-6-6-6\3-3-3-3---5---5---5---6-6-6-6/10-10-10-10---------------|
E|-0---0---0---0-----------------0---0---0---0-----------------------------------|

verse
E|---------------------------------------------------------------------------|
B|---------------------------------------------------------------------------|
G|---------------------------------------------------------------------------|
D|-----0------1-------0------0--3-3-XX-3-3-XX-3-3----------------------------|
A|-0-0-0--1-1-1--1-11-0--0-0-0--3-3-XX-3-3-XX-3-3----------------------------|
E|-0-0-0--1-1-1--1-11-0--0-0-0--3-3-XX-3-3-XX-3-3----------------------------|X2
   * *    * *    * **    * *

Chorus
E|---------------------------------------------------------------------------|
B|---------------------------------------------------------------------------|
G|---------------------------------------------------------------------------|
D|-0----0-0-0-0---1----1-1-1-1---0---0-0-0-0---3----3-3-3-3------------------|
A|-0----0-0-0-0---1----1-1-1-1---0---0-0-0-0---3----3-3-3-3------------------|
E|-0----0-0-0-0---1----1-1-1-1---0---0-0-0-0---3----3-3-3-3------------------|

Post chorus
E|-------------------------------------------------------------------------------|
B|-------------------------------------------------------------------------------|
G|---7---7---7---8-8-8-8-5-5-5-5---7---7---7---8-8-8-8/12-12-12-12---------------|
D|---X---X---X---X-X-X-X-X-X-X-X---X---X---X---X-X-X-X-X--X--X--X----------------|
A|-0-5-0-5-0-5-0-6-6-6-6\3-3-3-3-0-5-0-5-0-5-0-6-6-6-6/10-10-10-10---------------|
E|-0---0---0---0-----------------0---0---0---0-----------------------------------|X2

interlude

E|-----------------------------------------------------------------------------------|
B|-----------------------------------------------------------------------------------|
G|--7-7-7-7-7-7-7-7-7-7-7-7-7-7-7-7/8-8-8-8-8-8-8-8\5-5-5-5-5-5-5-5------------------|
D|--X-X-X-X-X-X-X-X-X-X-X-X-X-X-X-X X-X-X-X-X-X-X-X X-X-X-X-X-X-X-X------------------|
A|--5-5-5-5-5-5-5-5-5-5-5-5-5-5-5-5/6-6-6-6-6-6-6-6\3-3-3-3-3-3-3-3------------------|
E|-----------------------------------------------------------------------------------|

E|-----------------------------------------------------------------------------------|
B|-----------------------------------------------------------------------------------|
G|--7-7-7-7-7-7-7-7-7-7-7-7-7-7-7-7/8-8-8-8-8-8-8-8/12-12-12-12-12-12-12-12----------|
D|--X-X-X-X-X-X-X-X-X-X-X-X-X-X-X-X-X-X-X-X-X-X-X-X--X--X--X--X--X--X--X--X----------|
A|--5-5-5-5-5-5-5-5-5-5-5-5-5-5-5-5/6-6-6-6-6-6-6-6/10-10-10-10-10-10-10-10----------|
E|-----------------------------------------------------------------------------------|

repeat the above two twice

Bridge
E|---------------------------------------------------------------------------|
B|---------------------------------------------------------------------------|
G|---------------------------------------------------------------------------|
D|---------------------------------------------------------------------------|
A|-0-0-0-0-0-0-0--0-0-0-0-0-0--1-1-1-1-1-1-1--1-1-1-1-1-1-1------------------|
E|-0-0-0-0-0-0-0--0-0-0-0-0-0--1-1-1-1-1-1-1--1-1-1-1-1-1-1------------------|
   * * * * * * *  * * * * * *  * * * * * * *  * * * * * * *

E|---------------------------------------------------------------------------|
B|---------------------------------------------------------------------------|
G|---------------------------------------------------------------------------|
D|---------------------------------------------------------------------------|
A|-0-0-0-0-0-0-0--0-0-0-0-0-0-0--3-3-3-3-3-3-3--3-3-3-3-3-3-3----------------|
E|-0-0-0-0-0-0-0--0-0-0-0-0-0-0--3-3-3-3-3-3-3--3-3-3-3-3-3-3----------------|
   * * * * * * *  * * * * * * *  * * * * * * *  * * * * * * *
E|----------------------------------------------------------------------------------------------|
B|----------------------------------------------------------------------------------------------|
G|---------7---7---7-7--------------8---8---8-8--------------7---7---7-7---------8/12-12-12-12--|
D|---------X---X---X-X--------------X---X---X-X--------------X---X---X-X---------X--X--X--X--X--|
A|-0-0-0-0-5---5-0-5-5-0-0--0-0-0-0-6---6-0-6-6-0-0--0-0-0-0-5---5-0-5-5-0-0-0-0-6/10-10-10-10--|
E|-0-0-0-0-------0-----0-0--0-0-0-0-------0-----0-0--0-0-0-0-------0-----0-0-0-0----------------|
   * * * *       *     * *  * * * *       *     * *  * * * *       *     * * * * 

Chorus
E|---------------------------------------------------------------------------|
B|---------------------------------------------------------------------------|
G|---------------------------------------------------------------------------|
D|-0----0-0-0-0---1----1-1-1-1---0---0-0-0-0---3----3-3-3-3------------------|
A|-0----0-0-0-0---1----1-1-1-1---0---0-0-0-0---3----3-3-3-3------------------|
E|-0----0-0-0-0---1----1-1-1-1---0---0-0-0-0---3----3-3-3-3------------------|

Post chorus
E|-------------------------------------------------------------------------------|
B|-------------------------------------------------------------------------------|
G|---7---7---7---8-8-8-8-5-5-5-5---7---7---7---8-8-8-8/12-12-12-12---------------|
D|---X---X---X---X-X-X-X-X-X-X-X---X---X---X---X-X-X-X-X--X--X--X----------------|
A|-0-5-0-5-0-5-0-6-6-6-6\3-3-3-3-0-5-0-5-0-5-0-6-6-6-6/10-10-10-10---------------|
E|-0---0---0---0-----------------0---0---0---0-----------------------------------|X2

Chorus
E|---------------------------------------------------------------------------|
B|---------------------------------------------------------------------------|
G|---------------------------------------------------------------------------|
D|-0----0-0-0-0---1----1-1-1-1---0---0-0-0-0---3----3-3-3-3------------------|
A|-0----0-0-0-0---1----1-1-1-1---0---0-0-0-0---3----3-3-3-3------------------|
E|-0----0-0-0-0---1----1-1-1-1---0---0-0-0-0---3----3-3-3-3------------------|

and then
E|--------------------------------------------------------------------|
B|--------------------------------------------------------------------|
G|--------------------------------------------------------------------|
D|-0----0-0-0-0---1----1-1-1-1---0---0-0-0-0---3----------------------|
A|-0----0-0-0-0---1----1-1-1-1---0---0-0-0-0---3----------------------|
E|-0----0-0-0-0---1----1-1-1-1---0---0-0-0-0---3----------------------|
Composição de Drowning Pool
Colaboração e revisão:
  • Pedro Rodrigues
85 exibições
    • ½ Tom
    • Am
    • Bbm
    • Bm
    • Cm
    • C#m
    • Dm
    • Ebm
    • Em
    • Fm
    • F#m
    • Gm
    • G#m
  • Adicionar à lista

    0 comentários

    Ver todos os comentários

    Conseguiu tocar?

    0 Tocaram 0 Ainda não

    Grave um vídeo tocando All Over Me e nos envie!

    00:00 / 00:00
    Outros vídeos desta música
    Repetir Qualidade Automático
    Outros vídeos desta música
    00:00 / 00:00
    Automático

    Cifra Club Pro

    Aproveite o Cifra Club com benefícios exclusivos e sem anúncios
    Cifra Club Pro
    Aproveite o Cifra Club com benefícios exclusivos e sem anúncios
    OK