Cifra Club

Aprenda

Let The Sin Begin

Drowning Pool

Cifra: Principal (violão e guitarra)
tom: G
Tuning: Drop D ( D A D G H e )

                        1. 3.__ 2. 4.__                      1. 3._ 2. 4._
                       |       |       |                    |      |      |
E|----------x----------|-------|-------|-|------------------|------|------|
H|----------x----------|-------|------o|-|o----------------o|------|-----o|
G|-------10-x-9--9-9---|-7-10--|-10-2--|-|------------------|-7-10-|-9-2--|
D|-2-x-x-10-x-9--9-9-x-|-7-10--|-8--2--|-|------------------|-7-10-|-9-2--|
A|-2-x-x-8--x-7--7-7-x-|-5-8---|-8--0-o|-|o----------------o|-5-8--|-7-0-o|
D|-2-x-x----x--------x-|-------|-------|-|--2-4-6+\5-1b2p0--|------|------|

E|---------------------------------------------------------|--|-----------|
H|--------------------------------------------------------o|--|o---------o|
G|---------------------------------------------------------|--|--9-9-9-9--|
D|----------------------------------------------------2-5--|--|--7-7-7-7--|
A|----------------------------------------------------2-5-o|--|o-7-7-7-7-o|
D|-2b4p0-0-0-0--4b7p0-0-0-0--6b9p0-0-0-0--6b9p0-0-0-0-2-5--|--|-----------|

                                  1. 3.___ 2. 4.____
                                 |        |         |
E|--------------|----------------|--------|---------|----------x----------|
H|--------------|o---------------|--------|--------o|----------x----------|
G|---------9/10-|--3/4--3/4--3/4-|-7-7-10-|-7-10-5--|-------10-x-9--9-9---|
D|-x-x-x-x-9/10-|--x-x--x-x--x-x-|-x-x-x--|-x-x--x--|-2-x-x-10-x-9--9-9-x-|
A|-x-x-x-x-7/8--|o-1/2--1/2--1/2-|-5-5-8--|-5-8--3-o|-2-x-x-8--x-7--7-7-x-|
D|-x-x-x-x------|----------------|--------|---------|-2-x-x----x--------x-|

    1._____ 2._____                       1. 3._ 2. 4.__
   |       |       |                     |      |       |
E|-|-------|-------|-|-------------------|------|-------|-----------------|
H|-|-------|------o|-|o------------------|------|------o|-----------------|
G|-|-7-10--|-10-2--|-|-------------------|-7-10-|-9-2---|-----------------|
D|-|-7-10--|-10-2--|-|-------------------|-7-10-|-9-2---|-----------------|
A|-|-5-8---|-8--0-o|-|o------------------|-5-8--|-7-0--o|-----------------|
D|-|-------|-------|-|--2-4--6+\5-1b2p0--|------|-------|-----------------|

E|---------------------------------------------------------|--|-----------|
H|--------------------------------------------------------o|--|o---------o|
G|---------------------------------------------------------|--|--9-9-9-9--|
D|----------------------------------------------------2-5--|--|--7-7-7-7--|
A|----------------------------------------------------2-5-o|--|o-7-7-7-7-o|
D|-2b4p0-0-0-0--4b7p0-0-0-0--6b9p0-0-0-0--6b9p0-0-0-0-2-5--|--|-----------|

                                  1. 3.___ 2. 4.____
                                 |        |         |
E|--------------|----------------|--------|---------|----------x----------|
H|--------------|o---------------|--------|--------o|----------x----------|
G|---------9/10-|--3/4--3/4--3/4-|-7-7-10-|-7-10-5--|-------10-x-9--9-9---|
D|-x-x-x-x-9/10-|--x-x--x-x--x-x-|-x-x-x--|-x-x--x--|-2-x-x-10-x-9--9-9-x-|
A|-x-x-x-x-7/8--|o-1/2--1/2--1/2-|-5-5-8--|-5-8--3-o|-2-x-x-8--x-7--7-7-x-|
D|-x-x-x-x------|----------------|--------|---------|-2-x-x----x--------x-|

    1._____ 2._____             1. 3._ 2._______ 4.________
   |       |       |           |      |         |          |
E|-|-------|-------|-|---------|------|---------|----------|--------------|
H|-|-------|------o|-|o--------|------|---------|- Some   -|--------------|
G|-|-7-10--|-10-2--|-|--10+-9+-|------|---------|- Effect -|--------------|
D|-|-7-10--|-10-2--|-|---------|------|---------|- i dont -|--------------|
A|-|-5-8---|-8--0-o|-|o--------|----8-|---------|- know.. -|--------------|
D|-|-------|-------|-|---------|-8b9--|-12b13-7-|----------|--------------|

E|------------------------------------------------------------------------|
H|------------------------------------------------------------------------|
G|---------------------------------------------------------7-9-7-5-7-5----|
D|-8b9-8b9-8b9~-8h10p8-6h7-7-9-5-7-5-7---5---5-----5-7-5---------------7--|
A|-------------------------------------7---7---5-7-------7----------------|
D|------------------------------------------------------------------------|

E|------------------------------------------------------------------------|
H|--------------------------------------------------11b13--11b13--11b13---|
G|-5-7~-5h6p5--5b7----------------------------------11b12--11b12--11b12---|
D|-----------------*5b6--5-7-5---5-------5--------------------------------|
A|-----------------------------7---7-5-7---7-5----------------------------|
D|---------------------------------------------9-7------------------------|

E|-12-17-12----12-15-12----12-17-12----12-15----------12--15b16-17--------|
H|----------12----------12----------12-------12-11b13---------------------|
G|----------------------------------------------11b12---------------------|
D|------------------------------------------------------------------------|
A|------------------------------------------------------------------------|
D|------------------------------------------------------------------------|

E|-15p14p12-12b13--10h12p10-----------------------------------------------|
H|---------------------------11-10---------------- Sorry, i --------------|
G|---------------------------------11-10-9-10-9-7- am stuck --------------|
D|------------------------------------------------ here...  --------------|
A|------------------------------------------------------------------------|
D|------------------------------------------------------------------------|

                  1.______ 2.______ 3.____________________________________
                 |        |        |                                      |
E|---------------|--------|--------|--------------------------------------|
H|---------------|--------|--------|-------------------------------------o|
G|-3/4--3/4--3/4-|-7-7-10-|-7-10-5-|-3/4-4-4--3/4-4-4--3/4-4-4--10-5------|
D|-x-x--x-x--x-x-|-x-x-x--|-x-x--x-|-x-x-x-x--x-x-x-x--x-x-x-x--x--x------|
A|-1/2--1/2--1/2-|-5-5-8--|-5-8--3-|-1/2-2-2--1/2-2-2--1/2-2-2--8--3-----o|
D|---------------|--------|--------|--------------------------------------|

                  1. 3.___ 2. 4.____                          1. 3._______
                 |        |         |                        |            |
E|---------------|--------|---------|-|-----------x----------|------------|
H|---------------|--------|--------o|-|o----------x----------|------------|
G|-3/4--3/4--3/4-|-7-7-10-|-7-10-5--|-|--------10-x-9--9-9---|-7-10-------|
D|-x-x--x-x--x-x-|-x-x-x--|-x-x--x--|-|--2-x-x-10-x-9--9-9-x-|-7-10-------|
A|-1/2--1/2--1/2-|-5-5-8--|-5-8--3-o|-|o-2-x-x-8--x-7--7-7-x-|-5-8--------|
D|---------------|--------|---------|-|--2-x-x----x--------x-|------------|

    2. 4.__
   |       |
E|-|-------|--------------------------------------------------------------|
H|-|------o|-12-12-12-12--12-12-12-12--12-12-12-12--12\3------------------|
G|-|-10-2--|-x--x--x--x---x--x--x--x---x--x--x--x---x---------------------|
D|-|-10-2--|-9--9--9--9---9--9--9--9---9--9--9--9---9\0-------------------|
A|-|-8--0-o|--------------------------------------------------------------|
D|-|-------|--------------------------------------------------------------|
Composição de Drowning Pool / Kato Khandwala
Colaboração e revisão:
  • Pedro Rodrigues
42 exibições
    • ½ Tom
    • A
    • Bb
    • B
    • C
    • Db
    • D
    • Eb
    • E
    • F
    • F#
    • G
    • Ab
  • Adicionar à lista

    0 comentários

    Ver todos os comentários

    Conseguiu tocar?

    0 Tocaram 0 Ainda não

    Grave um vídeo tocando Let The Sin Begin e nos envie!

    00:00 / 00:00
    Outros vídeos desta música
    Repetir Qualidade Automático
    Outros vídeos desta música
    00:00 / 00:00
    Automático

    Cifra Club Pro

    Aproveite o Cifra Club com benefícios exclusivos e sem anúncios
    Cifra Club Pro
    Aproveite o Cifra Club com benefícios exclusivos e sem anúncios
    OK