Cifra Club

Aprenda

More Than Worthless

Drowning Pool

Cifra: Principal (violão e guitarra)
tom: G
Intro:
C|---------8-------7--|---------8-------7--|---------8-----8--5-|
G|--------------------|--------------------|--------------------|
E|------9-------7-----|------9-------9-----|------9-----9-------|
B|-7------------------|-10-----------------|--------------------|
F|--------------------|--------------------|-10-----------------|
B|--------------------|--------------------|--------------------|

Verso:
C|--------------------|--------------------|--------------------|----------------------|
G|---------1-------0--|---------1-------0--|---------1-----0-33-|---------1-----0-3333-|
E|--------------------|--------------------|--------------------|----------------------|
B|------2-------2-----|------2-------2-----|------2-----2-------|------2-----2---------|
F|-0------------------|-3------------------|--------------------|----------------------|
B|--------------------|--------------------|-5------------------|-5--------------------|

C|--------------------|--------------------|--------------------|----------------------|
G|---------1-------0--|---------1-------0--|---------3-----1----|---------3-----1----0-|
E|--------------------|--------------------|--------------------|----------------------|
B|------2-------2-----|------2-------2-----|------2-----2-------|------2-----2----2----|
F|-0------------------|-3------------------|--------------------|----------------------|
B|--------------------|--------------------|-5------------------|-5--------------------|

Pré-Refrão:
C|-----------------|--------------------------|-----------------|
G|-----------------|---------1------0-0-0-0-0-|-----------------|
E|-5-5-5-5-7-7-7-7-|------------------2-2-2-2-|-5-5-5-5-7-7-7-7-|
B|-5-5-5-5-7-7-7-7-|------2------2------------|-5-5-5-5-7-7-7-7-|
F|-3-3-3-3-5-5-5-5-|-0------------------------|-3-3-3-3-5-5-5-5-|
B|-----------------|--------------------------|-----------------|

Refrão:
C|-----------------|-------------------------|-----------------|-----------------|
G|-----------------|-------------------------|-----------------|-----------------|
E|-----------------|-------------------------|-----------------|-----------------|
B|-7-7-7-7-7-7-7-7-|-10-10-10-10-10-10-10-10-|-5-5-5-5-5-5-5-5-|-3-3-3-3-3-3-5-5-|
F|-7-7-7-7-7-7-7-7-|-10-10-10-10-10-10-10-10-|-5-5-5-5-5-5-5-5-|-3-3-3-3-3-3-5-5-|
B|-7-7-7-7-7-7-7-7-|-10-10-10-10-10-10-10-10-|-5-5-5-5-5-5-5-5-|-3-3-3-3-3-3-5-5-|

C|----------------|----------------------|----------------|------------------------------|
G|----------------|----------------------|----------------|------------------------------|
E|----------------|----------------------|----------------|------------------------------|
B|-7-7--7-7--7-7--|-10-10--10-10--10-10--|-7-7--7-7--7-7--|-10-10--10-10--10-10-12-12-12-|
F|-7-7--7-7--7-7--|-10-10--10-10--10-10--|-7-7--7-7--7-7--|-10-10--10-10--10-10-12-12-12-|
B|-7-7--7-7--7-7--|-10-10--10-10--10-10--|-7-7--7-7--7-7--|-10-10--10-10--10-10-12-12-12-|

Ponte:
C|-----------------|-----------------|-----------------|-----------------------|
G|-----------------|-----------------|-----------------|-1-1-1-1-1-3-3-3-0-0-0-|
E|-----------------|-----------------|-----------------|-2-2-2-2-2-2-2-2-2-2-2-|
B|-3-3-3-3-3-3-3-3-|-2-2-2-2-2-2-2-2-|-3-3-3-3-3-3-3-3-|-2-2-2-2-2-2-2-2-2-2-2-|
F|-3-3-3-3-3-3-3-3-|-2-2-2-2-2-2-2-2-|-3-3-3-3-3-3-3-3-|-0-0-0-0-0-0-0-0-0-0-0-|
B|-3-3-3-3-3-3-3-3-|-2-2-2-2-2-2-2-2-|-3-3-3-3-3-3-3-3-|-----------------------|

C|-----------------|-----------------|-----------------|
G|-----------------|-----------------|-----------------|
E|-----------------|-----------------|-----------------|
B|-3-3-3-3-3-3-3-3-|-2-2-2-2-2-2-2-2-|-5~~~~~~~~~~~~~~-|
F|-3-3-3-3-3-3-3-3-|-2-2-2-2-2-2-2-2-|-5~~~~~~~~~~~~~~-|
B|-3-3-3-3-3-3-3-3-|-2-2-2-2-2-2-2-2-|-5~~~~~~~~~~~~~~-|
Composição de Drowning Pool / Kato Khandwala
Colaboração e revisão:
  • Rodrigo
277 exibições
    • ½ Tom
    • A
    • Bb
    • B
    • C
    • Db
    • D
    • Eb
    • E
    • F
    • F#
    • G
    • Ab
  • Adicionar à lista

    0 comentários

    Ver todos os comentários

    Conseguiu tocar?

    0 Tocaram 0 Ainda não

    Grave um vídeo tocando More Than Worthless e nos envie!

    00:00 / 00:00
    Outros vídeos desta música
    Repetir Qualidade Automático
    Outros vídeos desta música
    00:00 / 00:00
    Automático

    Cifra Club Pro

    Aproveite o Cifra Club com benefícios exclusivos e sem anúncios
    Cifra Club Pro
    Aproveite o Cifra Club com benefícios exclusivos e sem anúncios
    OK