Cifra Club

Aprenda

Soldiers

Drowning Pool

Cifra: Principal (violão e guitarra)
tom: G
Tuning: Dropped B (Db Ab E B Gb B)

Intro:
Guitar 1
E|----------------------------------|-----------------------|
B|----------------------------------|-----------------------|
G|---------------------------------:|-----------------------|
D|-2-2-2-------2h3-0-0-------0h3---:|-0-0-0---012\----------|
A|-2-2-------------0-0--------------|-0-0-0---012\----------|
E|-2-2----22-2-----0-0--00-0--------|-0-0-0---012\----------|
|
Guitar 2
E|----------------------------------|-----------------------|
B|----------------------------------|-----------------------|
G|---------------------------------:|-----------------------|
D|-2-2-------------0-0-------------:|-0-0-0---012\----------|
A|-2-2-------------0-0--------------|-0-0-0---012\----------|
E|-2-2-------------0-0--------------|-0-0-0---012\----------|

Both Guitars
E|----------------------------------||-----------------------|
B|----------------------------------||-----------------------|
G|---------------------------------:||-----------------------|
D|-2-2-2-------2h3-0-0-------0h3---:||-0-0-0---012\----------|
A|-2-2-------------0-0--------------||-0-0-0---012\----------|
E|-2-2----22-2-----0-0--00-0--------||-0-0-0---012\----------|


Verse:
"On You Feet, Who's With Me"
E|----------------------------------------------||------|
B|----------------------------------------------||------|
G|---------------------------------------------:||------|
D|----55558888---------------------------------:||-14\--|
A|7777--------55555588--------1111--------------||-14\--|
E|--------------------22225555----00000033------||-14\--|

E|---------------------------------||
B|---------------------------------||
G|--------------------------------:||
D|2-5/8--0-2-3-2-5/8--0-2-3-------:||
A|2-5/8--0-2-3-2-5/8--0-2-3--------||
E|2-5/8--0-2-3-2-5/8--0-2-3--------||

Pre-Chorus:
E|--------------------------------------|
B|--------------------------------------|
G|--------------------------------------|
D|6660006660006-6-666000666000-8-8------|
A|6660006660006-6-666000666000-8-8\-----|
E|6660006660006-6-666000666000-8-8\-----|


Chorus:
Guitar 1
E|----------------------------------------------------|
B|------5-6----------3--5-----------------------------|
G|----------------------------------------------------|
D|-2-2------12\-0-0-------12\-0-0-0---012\------------|
A|-2-2------12\-0-0-------12\-0-0-0---012\------------|
E|-2-2------12\-0-0-------12\-0-0-0---012\------------|
|
Guitar 2
E|----------------------------------------------------|
B|----------------------------------------------------|
G|----------------------------------------------------|
D|-2-2--2-3--12\-0-0--0-3--12\-0-0-0---012\-----------|
A|-2-2-------12\-0-0-------12\-0-0-0---012\-----------|
E|-2-2-------12\-0-0-------12\-0-0-0---012\-----------|

Both Guitars
E|----------------------------------||-----------------------|
B|----------------------------------||-----------------------|
G|---------------------------------:||-----------------------|
D|-2-2-2-------2h3-0-0-------0h3---:||-0-0-0---012\----------|
A|-2-2-------------0-0--------------||-0-0-0---012\----------|
E|-2-2----22-2-----0-0--00-0--------||-0-0-0---012\----------|


Verse:
"On You Feet, Who's With Me"
E|----------------------------------------------||------|
B|----------------------------------------------||------|
G|---------------------------------------------:||------|
D|----55558888---------------------------------:||-14\--|
A|7777--------55555588--------1111--------------||-14\--|
E|--------------------22225555----00000033------||-14\--|

E|---------------------------------||
B|---------------------------------||
G|--------------------------------:||
D|2-5/8--0-2-3-2-5/8--0-2-3-------:||
A|2-5/8--0-2-3-2-5/8--0-2-3--------||
E|2-5/8--0-2-3-2-5/8--0-2-3--------||

Pre-Chorus:
E|--------------------------------------|
B|--------------------------------------|
G|--------------------------------------|
D|6660006660006-6-666000666000-8-8------|
A|6660006660006-6-666000666000-8-8\-----|
E|6660006660006-6-666000666000-8-8\-----|


Chorus:
Guitar 1
E|----------------------------------------------------|
B|------5-6----------3--5-----------------------------|
G|----------------------------------------------------|
D|-2-2------12\-0-0-------12\-0-0-0---012\------------|
A|-2-2------12\-0-0-------12\-0-0-0---012\------------|
E|-2-2------12\-0-0-------12\-0-0-0---012\------------|
|
Guitar 2
E|----------------------------------------------------|
B|----------------------------------------------------|
G|----------------------------------------------------|
D|-2-2--2-3--12\-0-0--0-3--12\-0-0-0---012\-----------|
A|-2-2-------12\-0-0-------12\-0-0-0---012\-----------|
E|-2-2-------12\-0-0-------12\-0-0-0---012\-----------|

Both Guitars
E|----------------------------------||-----------------------|
B|----------------------------------||-----------------------|
G|---------------------------------:||-----------------------|
D|-2-2-2-------2h3-0-0-------0h3---:||-0-0-0---012\----------|
A|-2-2-------------0-0--------------||-0-0-0---012\----------|
E|-2-2----22-2-----0-0--00-0--------||-0-0-0---012\----------|


Solo:
There's lots of effects on this
E|-11b-11b-11b--------------------------11b----9b-9b-9b9b-9b------|
B|----------------12h9-12h9-12h9-12h9---11b----9b-9b-9b9b-9b------|
G|----------------12h9-12h9-12h9-12h9-----------------------------|
D|------------------------------------------------------------2---|
A|------------------------------------------------------------2---|
E|------------------------------------------------------------2---|

Break:
E|----00000------00000--------|
B|----00000------00000--------|
G|----00000------00000--------| I don't know the strumming patterns,
D|22--22222--00--00000--------| But I know these chords are right
A|22--22222--00--00000--------|
E|22--22222--00--00000--------|

E|-----------------------------|
B|---------6b------------------|
G|-----------------------------|
D|22----00----22---0-0-0---012\|
A|22----00----22---0-0-0---012\|
E|22----00----22---0-0-0---012\|

Chorus:
Both Guitars
E|----------------------------------||-----------------------|
B|----------------------------------||-----------------------|
G|---------------------------------:||-----------------------|
D|-2-2-2-------2h3-0-0-------0h3---:||-0-0-0---012\----------| x2 
A|-2-2-------------0-0--------------||-0-0-0---012\----------|
E|-2-2----22-2-----0-0--00-0--------||-0-0-0---012\----------|

Outro:
E|----00000------00000--------|
B|----00000------00000--------|
G|----00000------00000--------| Play this a bunch of times and end on...
D|22--22222--00--00000--------| 
A|22--22222--00--00000--------|
E|22--22222--00--00000--------|

This...
E|-0------|
B|-0------|
G|-0------|
D|-2------|
A|-2------|
E|-2------|

| /  slide up
| \  slide down
| h  hammer-on
| p  pull-off
| ~  vibrato
| +  harmonic
| x  Mute note
Composição de Drowning Pool
Colaboração e revisão:
  • Pedro Rodrigues
12 exibições
    • ½ Tom
    • A
    • Bb
    • B
    • C
    • Db
    • D
    • Eb
    • E
    • F
    • F#
    • G
    • Ab
  • Adicionar à lista

    0 comentários

    Ver todos os comentários

    Conseguiu tocar?

    0 Tocaram 0 Ainda não

    Grave um vídeo tocando Soldiers e nos envie!

    00:00 / 00:00
    Outros vídeos desta música
    Repetir Qualidade Automático
    Outros vídeos desta música
    00:00 / 00:00
    Automático

    Cifra Club Pro

    Aproveite o Cifra Club com benefícios exclusivos e sem anúncios
    Cifra Club Pro
    Aproveite o Cifra Club com benefícios exclusivos e sem anúncios
    OK