Cifra Club

No Reason

Dry Kill Logic

Cifra: Principal (violão e guitarra)
Selo Cifra Club: esta cifra foi revisada para atender aos critérios oficiais da nossa Equipe de Qualidade.
tom: Em
Intro/verse
E|---------------------------------------------------------|
B|------0---------0----------------0-----------------------|
G|-----0---0-----0-0------0--------------------------------|
D|----5------5--5---4-4--4--4-----4-4-----4----------------|
A|---3---------3-----3--2-----2--2---2-3/5-----------------|
E|---------------------2--------2--------------------------|

Pre chorus                       P.M.
E|---------------------------------------------------------|
B|------0---------0-----------0----------------------------|
G|-----0---0-----0-0------0---0----------------------------|
D|----5------5--5---4-4--4--4-4-4-4-4-4--------------------|
A|---3---------3-----3--2-----2-2-2-2-2--------------------|
E|---------------------2-----------------------------------|
Outros vídeos desta música
    13 exibições
      • ½ Tom
      • Am
      • Bbm
      • Bm
      • Cm
      • C#m
      • Dm
      • Ebm
      • Em
      • Fm
      • F#m
      • Gm
      • G#m
    • Adicionar à lista

    Afinação da cifra

    Afinador online

      0 comentários

      Ver todos os comentários

      Entre para o Cifra Club PRO

      Tenha acesso a benefícios exclusivos no App e no Site

      • Chega de anúncios

      • Badges exclusivas

      • Mais recursos no app do Afinador

      • Atendimento Prioritário

      • Aumente seu limite de lista

      • Ajude a produzir mais conteúdo

      Cifra Club Pro

      Aproveite o Cifra Club com benefícios exclusivos e sem anúncios
      Cifra Club Pro
      Aproveite o Cifra Club com benefícios exclusivos e sem anúncios
      Ops (: Contenido disponible sólo en portugués.
      OK