Cifra Club

Aprenda

Don't Start Now

Dua Lipa

Cifra: Guitarra (violão e guitarra)
Quer fazer aulas de música com a gente? Responda essas perguntas
e nos ajude nesse projeto! →
tom: Bm
[Intro]

E|---------------------------------------------------|
B|--------10/12--10----------7/8----7~---------------|
G|-----7---------------7--9--------------------------|
D|---X-----------------------------------------------|
A|-X-------------------------------------------------|
E|---------------------------------------------------|

[Primeira Parte]

E|---------------------------------------------------|
B|---------------------------------------------------|
G|-/11-11-11----11----b14r12--11~----b9r7~-----------|
D|---------------------------------------------------|
A|---------------------------------------------------|
E|---------------------------------------------------|

E|---------------------------------------------------|
B|---------------------------------------------------|
G|---------7-9-/11-----------------------------------|
D|-X-X-7h9----------7--7~~---------------------------|
A|---------------------------------------------------|
E|---------------------------------------------------|

E|---------------------------------------------------|
B|-X-7-7---7-----------------------------------------|
G|-X-----------b14r12--11~----b9r7~------------------|
D|---------------------------------------------------|
A|---------------------------------------------------|
E|---------------------------------------------------|

E|---------------------------------------------------|
B|---------------------------------------------------|
G|---------7-9-/11-----------------------------------|
D|-X-X-7h9----------7--7~~---------------------------|
A|---------------------------------------------------|
E|---------------------------------------------------|

[Segunda Parte]

E|---------------------------------------------------|
B|---------------------------------------------------|
G|-6h7p6-------------6br-----------------------------|
D|-------9---x-9-x-x------9~-------------------------|
A|---------------------------------------------------|
E|---------------------------------------------------|

E|---------------------------------------------------|
B|---------------------------------------------------|
G|-6h7p6-------------9b10r9p7------------------------|
D|-------9---x-9-x-x---------------------------------|
A|---------------------------------------------------|
E|---------------------------------------------------|

E|---------------------------------------------------|
B|---------------------------------------------------|
G|-9/11p9--7-x-7-x-x-9b10r9--7--9--9b11--------------|
D|---------------------------------------------------|
A|---------------------------------------------------|
E|---------------------------------------------------|

E|---7-----------------------------------------------|
B|-7---7-10-10p7---7---------------------------------|
G|---------------9---9b11r9p7------------------------|
D|----------------------------9~~--------------------|
A|---------------------------------------------------|
E|---------------------------------------------------|

[Terceira Parte]

E|---------------------------------------------------|
B|--------10/12--10----------7/8----7~---------------|
G|-----7---------------7--9--------------------------|
D|---X-----------------------------------------------|
A|-X-------------------------------------------------|
E|---------------------------------------------------|

E|---------------------------------------------------|
B|----------8/10--8---7~-----------------------------|
G|-------7------------------9p7----------------------|
D|----7-------------------------9~p7\4-7p4---4-------|
A|-5---------------------------------------7---------|
E|---------------------------------------------------|

E|---------------------------------------------------|
B|---------------------------------------------------|
G|---------------------------------------------------|
D|---------------------------------------------------|
A|-7b8r7p5---5---------------------------------------|
E|---------7----7~-----------------------------------|

E|---------------------------------------------------|
B|--------10/12--10----------7/8----7~---------------|
G|-----7---------------7--9--------------------------|
D|---X-----------------------------------------------|
A|-X-------------------------------------------------|
E|---------------------------------------------------|

E|---------------------------------------------------|
B|----------8/10--8---7~-----------------------------|
G|-------7------------------9p7-9b11-----------------|
D|----7----------------------------------------------|
A|-5-------------------------------------------------|
E|---------------------------------------------------|

[Quarta Parte]

E|---------------------------------------------------|
B|---------------------------------------------------|
G|-9--9--9br\------7h9--9--9br\------7h9--9--9br-----|
D|---------------------------------------------------|
A|---------------------------------------------------|
E|---------------------------------------------------|

E|---------------------------------------------------|
B|--------------------------------7-----7--10--10br\-|
G|-7---7-9----9--9--9br\------/9-----9---------------|
D|---9-----------------------------------------------|
A|---------------------------------------------------|
E|---------------------------------------------------|

E|--------10h12--12br\-------10h12--12--12brp10------|
B|-10h12-----------------------------------------12--|
G|---------------------------------------------------|
D|---------------------------------------------------|
A|---------------------------------------------------|
E|---------------------------------------------------|

E|-10-12----12--12--12b14~~--------------------------|
B|---------------------------------------------------|
G|---------------------------------------------------|
D|---------------------------------------------------|
A|---------------------------------------------------|
E|---------------------------------------------------|

[Quinta Parte]

E|-15b17r--14~---------------------------------------|
B|----------------15b17r--15~------------------------|
G|---------------------------------------------------|
D|---------------------------------------------------|
A|---------------------------------------------------|
E|---------------------------------------------------|

E|---------------------------------------------------|
B|-----------15-17-/19-------------------------------|
G|-x-x-14h16-------------14-14~----------------------|
D|---------------------------------------------------|
A|---------------------------------------------------|
E|---------------------------------------------------|

E|---14-14--14---------------------------------------|
B|--------------20b17r--19~----15b17r--15~-----------|
G|-x-------------------------------------------------|
D|---------------------------------------------------|
A|---------------------------------------------------|
E|---------------------------------------------------|

E|---------------------------------------------------|
B|-----------15-17-/19-------------------------------|
G|-x-x-14h16-------------14-14~----------------------|
D|---------------------------------------------------|
A|---------------------------------------------------|
E|---------------------------------------------------|

[Sexta Parte]

E|---------------------------------------------------|
B|-14h15p14--------------14br------------------------|
G|----------16--x-16-x-x-------16~-------------------|
D|---------------------------------------------------|
A|---------------------------------------------------|
E|---------------------------------------------------|

E|---------------------------------------------------|
B|-14h15p14--------------17b18r17p15-----------------|
G|----------16--x-16-x-x-----------------------------|
D|---------------------------------------------------|
A|---------------------------------------------------|
E|---------------------------------------------------|

E|---------------------------------------------------|
B|-17/19p17--15-x-15-x-x-17br---15-17-17b19----------|
G|---------------------------------------------------|
D|---------------------------------------------------|
A|---------------------------------------------------|
E|---------------------------------------------------|

E|-14h15p14----14-15p14----14------------------------|
B|----------17----------17----17-15-14---------------|
G|-------------------------------------16------------|
D|---------------------------------------------------|
A|---------------------------------------------------|
E|---------------------------------------------------|

[Sétima Parte]

E|-17b19~~----14-17----------------------------------|
B|------------------17b19-17-15-14~------------------|
G|---------------------------------------------------|
D|---------------------------------------------------|
A|---------------------------------------------------|
E|---------------------------------------------------|

E|---------------------------------------------------|
B|-14h15p14----14------------------------------------|
G|----------16----16~--------------------------------|
D|---------------------------------------------------|
A|---------------------------------------------------|
E|---------------------------------------------------|

E|---------------------------------------------------|
B|---------------------------------------------------|
G|-----14p0-16p0-14p0--------------------------------|
D|-/16----------------16p0-14p0-----------14p0-16p0--|
A|------------------------------16p0-16p0------------|
E|---------------------------------------------------|

E|------------------17/19--17~----------14h15-14~----|
B|---------------15---------------15-17--------------|
G|-14p0-16~----x-------------------------------------|
D|-----------x---------------------------------------|
A|---------------------------------------------------|
E|---------------------------------------------------|

E|-------14-15/17-15--14~----------------------------|
B|----15---------------------17p15-17b19-------------|
G|-14------------------------------------------------|
D|---------------------------------------------------|
A|---------------------------------------------------|
E|---------------------------------------------------|

[Oitava Parte]

E|---------------------------------------------------|
B|-15h17---17--17br\----15h17---17--17br\------------|
G|---------------------------------------------------|
D|---------------------------------------------------|
A|---------------------------------------------------|
E|---------------------------------------------------|

E|---------------------------------------------------|
B|-15h17---17--17b18r17p15----15-17br---17--17--17b19|
G|-------------------------16------------------------|
D|---------------------------------------------------|
A|---------------------------------------------------|
E|---------------------------------------------------|

E|---------------------------------------------------|
B|-17b19---b19r17p15-17~----15h17---17--17br\--------|
G|---------------------------------------------------|
D|---------------------------------------------------|
A|---------------------------------------------------|
E|---------------------------------------------------|

E|---------------------------------------------------|
B|-15h17---17--17b18r17p15----15-17br---17--17--17b19|
G|-------------------------16------------------------|
D|---------------------------------------------------|
A|---------------------------------------------------|
E|---------------------------------------------------|

E|-14----14-15p14----14------------------------------|
B|----17----------17----17-15-14h15p14----14---------|
G|-------------------------------------16----16\-----|
D|---------------------------------------------------|
A|---------------------------------------------------|
E|---------------------------------------------------|

[Nona Parte]

E|---------------------------------------------------|
B|---------------------------------------------------|
G|-----14----16p14----14-12-9-12p9----11p9-----------|
D|-/16----16-------16--------------12------12--------|
A|---------------------------------------------------|
E|---------------------------------------------------|

E|---------------------------------------------------|
B|---------------------------------------------------|
G|-9h11p9----9-7h9p7---7-----------------------------|
D|--------12---------7---9p7-9p7-9~~-----------------|
A|---------------------------------------------------|
E|---------------------------------------------------|

E|---------------------------------------------------|
B|-----------------------10p0------12p0------10p0----|
G|----------7p0-9p0-11p0------11p0------11p0---------|
D|-/7p0-9p0------------------------------------------|
A|---------------------------------------------------|
E|---------------------------------------------------|

E|---------------------------------------------------|
B|------12p0-10p0-12b14----b14r12p10--12br~~---------|
G|-11p0----------------------------------------------|
D|---------------------------------------------------|
A|---------------------------------------------------|
E|---------------------------------------------------|

E|------9----9h10p9----9----------------------9------|
B|-/12----12--------12---12p10----10-12p10-12--------|
G|-----------------------------11--------------------|
D|---------------------------------------------------|
A|---------------------------------------------------|
E|---------------------------------------------------|

E|-9h10p9----9-8/9-----------------------------------|
B|--------12-------12-10-10h12p10p9----10------------|
G|----------------------------------11----11p9\7-----|
D|---------------------------------------------------|
A|---------------------------------------------------|
E|---------------------------------------------------|

E|---------------------------------------------------|
B|---------------------------------------------------|
G|-7-7h9p7\6--7p6---6-----------------6h7h9-7h9p7p6--|
D|----------------9---9-7-6h7h9-5h7h9---------------9|
A|---------------------------------------------------|
E|---------------------------------------------------|

[Décima Parte]

E|---------------------------------------------------|
B|------------------------8/10--8----7~--------------|
G|-----7--9/11~--------7-----------------------------|
D|-/9--------------/7--------------------------------|
A|---------------------------------------------------|
E|---------------------------------------------------|

E|---------------------------------------------------|
B|---------------------------------------------------|
G|-9p7-9b10r9p7-----7--------------------------------|
D|----------------9---9~-------7~--------------------|
A|--------------------------/9-----------------------|
E|---------------------------------------------------|

E|---------------------------------------------------|
B|-------10/12--10~--------7/8--7~-------------------|
G|-----7---------------7-9---------------------------|
D|---x-----------------------------------------------|
A|-x-------------------------------------------------|
E|---------------------------------------------------|

E|---------------------------------------------------|
B|----------8/10--8--7~------------------------------|
G|-------7-------------------------------------------|
D|----7----------------------------------------------|
A|-5-------------------------------------------------|
E|---------------------------------------------------|
Composição de Caroline Ailin / Dua Lipa / Emily Warren / Ian Kirkpatrick
Colaboração e revisão:
  • Gustavo Vaz
    • ½ Tom
    • Am
    • Bbm
    • Bm
    • Cm
    • C#m
    • Dm
    • Ebm
    • Em
    • Fm
    • F#m
    • Gm
    • G#m
  • Adicionar à lista

    0 comentários

    Ver todos os comentários

    Conseguiu tocar?

    0 Tocaram 1 Ainda não

    Grave um vídeo tocando Don't Start Now e nos envie!

    00:00 / 00:00
    Outros vídeos desta música
    Repetir Qualidade Automático
    Outros vídeos desta música
    00:00 / 00:00
    Automático
    Capítulos
    • Apresentação / Equipamentos
    • Ensinando Introdução
    • Ensinando Primeira Parte
    • Ensinando Segunda Parte
    • Ensinando Terceira Parte
    • Ensinando Quarta Parte
    • Ensinando Quinta Parte
    • Ensinando Sexta Parte
    • Ensinando Sétima Parte
    • Ensinando Oitava Parte
    • Dica
    • Encerramento

    Cifra Club Pro

    Aproveite o Cifra Club com benefícios exclusivos e sem anúncios
    Cifra Club Pro
    Aproveite o Cifra Club com benefícios exclusivos e sem anúncios
    OK