Cifra Club

Idgaf

Dua Lipa

Cifra: Principal (violão e guitarra)
exibições 62.718
Tom: Em
[Introdução] Em  D  G  C

     Em      D       G       C
E|-------x-------x-----7-x-------x----------|
B|-----8-x-----7-x-------x-----5-x----------|
G|-------x-------x---7---x-------x----------|
D|---9---x---7---x-5-----x---5---x----------|
A|-7-----x-5-----x-------x-3-----x----------|
E|-------x-------x-------x-------x----------|

[Primeira Parte]

Em              D
   You call me,   all friendly
G             C
  Tellin' me how much you miss me
Em            D
   That's funny
                Bm       C
I guess you've heard my songs, well

Em            D
   I'm too busy for your business
G            C
  Go find a girl who wants to listen
Em
   'Cause if you think
D
I was born yesterday
          Bm      C
You have got me wrong

[Dedilhado Padrão]

Parte 1
     Em      D       G       C
E|-------x-------x-----7-x-------x----------|
B|-----8-x-----7-x-------x-----5-x----------|
G|-------x-------x---7---x-------x----------|
D|---9---x---7---x-5-----x---5---x----------|
A|-7-----x-5-----x-------x-3-----x----------|
E|-------x-------x-------x-------x----------|

Parte 2
     Em      D       Bm      C
E|-------x-------x-------x-------x----------|
B|-----8-x-----7-x-----3-x-----5-x----------|
G|-------x-------x-------x-------x----------|
D|---9---x---7---x---4---x---5---x----------|
A|-7-----x-5-----x-2-----x-3-----x----------|
E|-------x-------x-------x-------x----------|

[Pré-refrão]

             Em
So I cut you off
   D
I don't need your love
G             C
  'Cause I already cried enough
           Em
I've been done
      D
I've been movin' on
 Bm            C
Since we said goodbye
          Em
I cut you off
   D
I don't need your love
G                C
  So you can try all you want
Em  D
   Your time is up
      Bm        C
I'll tell you why

[Refrão]

     Em         D
You say you're sorry
          G        C
But it's too late now
    Em       D             Bm  C
So save it, get gone, shut up
       Em       D
'Cause if you think
         G        C
I care about you now
       Em     D            Bm  C
Well, boy, I don't give a fuck

[Dedilhado - Refrão]

Parte 1
     Em      D           G       C
E|-------x-----------------7-x---------0----|
B|-----8-x-----7---7---------x-----5---5----|
G|-------x---------------7---x---------0----|
D|---9---x---7-----7---5---5-x---5-----5----|
A|-7---7-x-5-----5-5-5-------x-3-----3-3-3--|
E|-------x-------------------x--------------|
                   ↓                   ↓
Parte 2
     Em      D           G       C
E|-------x-------------------x---------0----|
B|-----8-x-----7---7-------3-x-----5---5----|
G|-------x-------------------x---------0----|
D|---9---x---7-----7-----4---x---5-----5----|
A|-7---7-x-5-----5-5-5-2---2-x-3-----3-3-3--|
E|-------x-------------------x--------------|
                   ↓                   ↓

[Segunda Parte]

Em         D
   I remember that weekend
G                C
  When my best friend

Caught you creepin'
Em         D                Bm   C
   You blamed it all on the alcohol, so

Em         D
   I made my decision
G                  C
  'Cause you made your bed, sleep in it
Em              D
   Play the victim

And switch your position
       Bm         C
I'm through, I'm done

[Pré-refrão]

             Em
So I cut you off
   D
I don't need your love
G             C
  'Cause I already cried enough
           Em
I've been done
      D
I've been movin' on
 Bm            C
Since we said goodbye
          Em
I cut you off
   D
I don't need your love
G                C
  So you can try all you want
Em  D
   Your time is up
      Bm        C
I'll tell you why

[Refrão]

     Em         D
You say you're sorry
          G        C
But it's too late now
    Em       D             Bm  C
So save it, get gone, shut up
       Em       D
'Cause if you think
         G        C
I care about you now
       Em     D            Bm  C
Well, boy, I don't give a fuck

                 Em       D
I see you tryna get to me
                  G         C
I see you begging on your knees
 Em     D            Bm  C
Boy, I don't give a fuck
               Em       D
So stop tryna get to me
       G          C
Get up off your knees
 Em     D            Bm     C
Boy, I don't give a fuck oh oh

[Terceira Parte]

       Em  D
About you
             G          C
No, I don't give a damn
 Em         D
You keep reminiscin' on when
 Bm          C
You were my man
              Em  D
But I'm over you
           G           C
Now you're all in the past
 Em            D
You talk all that sweet talk
      Bm            C
But I ain't comin' back

[Pré-refrão]

        Em
Cut you off
   D
I don't need your love
G                C
  So you can try all you want
Em  D
   Your time is up
     (pausa)
I'll tell you why

[Refrão]

     Em         D
You say you're sorry
          G        C
But it's too late now
    Em       D             Bm  C
So save it, get gone, shut up
       Em       D
'Cause if you think
         G        C
I care about you now
       Em     D            Bm  C
Well, boy, I don't give a fuck

                 Em       D
I see you tryna get to me
                  G         C
I see you begging on your knees
 Em     D            Bm  C
Boy, I don't give a fuck
               Em       D
So stop tryna get to me
       G          C
Get up off your knees
 Em     D            Bm     C
Boy, I don't give a fuck oh oh
Acordes para:
    Colaboração e revisão:
    • Leandro Sandim
    • taine

    0 comentários

    mostrar mais comentários

    Conseguiu tocar?

    27 tocaram 4 ainda não

    Grave um vídeo tocando Idgaf e mande pra gente!

    00:00 / 00:00
    outros vídeos desta música
    repetir qualidade Automático
    Outro vídeos desta música
    00:00 / 00:00
    Automático
    Capítulos
    • Tocando a música
    • Apresentação / Equipamentos
    • Acordes da música
    • Tocando Introdução e Primeira Parte
    • Dedilhado Padrão
    • Dedilhado Padrão - Parte 1 de 2
    • Dedilhado Padrão - Parte 2 de 2
    • Dicas Refrão
    • Tocando Refrão
    • Dedilhado Refrão
    • Dedilhado Refrão - Parte 1 de 2
    • Dedilhado Refrão - Parte 2 de 2
    • Encerramento
    OK