Cifra Club

Iceberg

Duca Leindecker

Cifra: Principal
exibições 7.901
Tom: D
Intro : ( D )

D|--(12)------------------0-------0---------0-------|
A|--(12)----7/--0---------0--7p0--0---------0-------|
F|--(12)--------0--7/-----0-------0--10/12--0-------|
D|--(12)----7/9p0---------0--7p0--0---------0-------|
A|--(12)-----------7/9p0--0-------0--10/12--0-------|
D|--(12)------------------0-------0---------0-------|

D|-------0-------0---------0------------------------|
A|-------0---7/--0---------0------------------------|
F|--7/---0-------0--10/12--0------------------------|
D|-------0---7/9p0---------0------------------------|
A|--7/9--0----------10/12--0------------------------|
D|-------0-----------------0------------------------|

      D#5      D       C#M7/9    D       D#5      D   F           D
Como vai, Tudo bem, Eu vou Sem você, A frieza no olhar, Iceberg no Mar
           D#5      D            C#M7/9    D        D#5      D       F             D
Sei que o sol já se pôs, Pra nós dois Sem luar, Uma pedra no chão, Um passarinho na mão

EM7/9          F#M7/9     GM7/9     AM7/9  EM7/9      F#M7/9     GM7/9       AM7/9
      Deixa estar, Se ganhar ou perder,          Cada um Tem seu sol Tem seu iceberg também
EM7/9    F#M7/9     GM7/9       AM7/9              EM7/9      F#M7/9     GM7/9         AM7/9
  Tem o bom, Tem o mau, Tem o que não Sabe que tem,      O futuro que virou presente Acaba de passar

(Intro)

      D#5      D            C#M7/9    D      D#5      D   F           D
Você vai, Você vem E eu não sei   porque A frieza no olhar, Iceberg no mar
           D#5      D            C#M7/9    D        D#5      D       F             D
Sei que o sol já se pôs, Pra nós dois Sem luar, Uma pedra no chão, Um passarinho na mão

EM7/9          F#M7/9     GM7/9     AM7/9  EM7/9      F#M7/9     GM7/9       AM7/9
      Deixa estar, Se ganhar ou perder,          Cada um Tem seu sol Tem seu iceberg também
EM7/9    F#M7/9     GM7/9       AM7/9              EM7/9      F#M7/9     GM7/9         AM7/9
  Tem o bom, Tem o mau, Tem o que não Sabe que tem,      O futuro que virou presente Acaba de passar
Acordes para:
    Composição: Duca LeindeckerColaboração e revisão:
    • Tarcisio Filho
    • Carlos Eduardo

    0 comentários

      mostrar mais comentários

      Conseguiu tocar?

      1tocaram1ainda não

      Grave um vídeo tocando Iceberg e mande pra gente!

      00:00 / 00:00
      outros vídeos desta música
      repetirqualidadeautomática
      Outro vídeos desta música
        00:00 / 00:00
        automática
        OK