Cifra Club

Te Louvarei

Dunamis Music

Cifra: Principal (violão e guitarra)
Selo Cifra Club: esta cifra foi revisada para atender aos critérios oficiais da nossa Equipe de Qualidade.
tom: E
[Intro] E  A  F#m

[Tab - Intro]

E|------------------------------------------|
B|-5--4--------5--4-------------------------|
G|-------6------------4--2------------------|
D|------------------------------------------|
A|------------------------------------------|
E|------------------------------------------|

[Primeira Parte]

E              A
Perto quero estar
B                E
Junto aos teus pés
 B/D#              A
Pois prazer maior não há
 C#m    B           A
Que me render e Te adorar
 E              A
Tudo que há em mim
 B             E
Quero te ofertar
 B/D#       A
Mas ainda é pouco eu sei
 C#m   B             A
Se comparado ao que ganhei
 E/G#              A
Não sou apenas servo
      B/D#        E  F#m
Seu amigo me tornei

[Refrão]

E         A
 Te louvarei
 E     B      A/C#      B/D#
Não importam as circunstâncias
E      A
Adorarei
C#m       B      E
Somente a ti Jesus

( E  A  F#m )

[Tab - Riff]

E|------------------------------------------|
B|-5--4--------5--4-------------------------|
G|-------6------------4--2------------------|
D|------------------------------------------|
A|------------------------------------------|
E|------------------------------------------|

[Segunda Parte]

E             A
Perto quero estar
B                E
Junto aos teus pés
 B/D#              A
Pois prazer maior não há
 C#m    B           A
Que me render e Te adorar
 E              A
Tudo que há em mim
 B             E
Quero te ofertar
 B/D#       A
Mas ainda é pouco eu sei
 C#m   B             A
Se comparado ao que ganhei
 E/G#              A
Não sou apenas servo
      B/D#        E    F#m
Seu amigo me tornei

[Refrão]

E         A
 Te louvarei
 E     B         A      B/D#
Não importam as circunstâncias
E      A
Adorarei
C#m       B      E
Somente a ti Jesus

E         A
 Te louvarei
 E     B         A      B/D#
Não importam as circunstâncias
E      A
Adorarei
C#m       B      E
Somente a ti Jesus

[Solo] C#m  G#m  A  F#m
       C#m  E  A  F#m

[Tab  Solo 2]

E|------------------------------------------|
B|-5--7--9---12--4---5--7--9/17--12---------|
G|------------------------------------------|
D|------------------------------------------|
A|------------------------------------------|
E|------------------------------------------|
C#m              B                A      F#m
Mesmo em meio a dor, eu sei que tu és fiel
C#m              B                A      F#m
Eu me alegro em ti, pois sei que tu és fiel

E          A
  Te louvarei
 E     B      C#m7      B/D#
Não importam as circunstâncias
E      A
Adorarei
F#m       B      E
Somente a ti Jesus

[Final] E  A  F#m
00:00 / 00:00
Outros vídeos desta música
Repetir
Outros vídeos desta música
7.565 exibições
    • ½ Tom
    • A
    • Bb
    • B
    • C
    • Db
    • D
    • Eb
    • E
    • F
    • F#
    • G
    • Ab
  • Adicionar à lista

Afinação da cifra

Afinador online

    0 comentários

    Ver todos os comentários

    Conseguiu tocar?

    3 Tocaram 0 Ainda não

    Grave um vídeo tocando Te Louvarei e nos envie!

    Entre para o Cifra Club PRO

    Tenha acesso a benefícios exclusivos no App e no Site

    • Chega de anúncios

    • Mais recursos no app do Afinador

    • Atendimento Prioritário

    • Aumente seu limite de lista

    • Ajude a produzir mais conteúdo

    00:00 / 00:00

    Cifra Club Pro

    Aproveite o Cifra Club com benefícios exclusivos e sem anúncios
    Cifra Club Pro
    Aproveite o Cifra Club com benefícios exclusivos e sem anúncios
    OK