Cifra Club

Serena

Duncan Sheik

Cifra: Principal (violão e guitarra)
Selo Cifra Club: esta cifra foi revisada para atender aos critérios oficiais da nossa Equipe de Qualidade.
tom: Em
   12-string Guitar - all arpeggiated upstrokes 
    Em                C                  Dsus               A 
E|--0--------------|--0---------------|--0---------------|--0----------------|
B|--0--------------|--1---------------|--3---------------|--5----------------|
G|--0--------------|--0---------------|--0---------------|--6----------------|
D|--2--------------|--2---------------|--4---------------|--7----------------|
A|--2--------------|--3---------------|--5---------------|--0----------------|
E|--0--------------|------------------|------------------|-------------------|

    Cadd9             E7/B               Dsus2/F#
E|--0--------------|--0---------------|--0---------------|
B|--3--------------|--3---------------|--3---------------|
G|--0--------------|--0---------------|--2---------------|
D|--2--------------|--0---------------|--0---------------|
A|--3--------------|--2---------------|--x---------------|
E|-----------------|------------------|--2---------------|



[Lead Part 1]

   (0:00)
E|------------------|------------------|-------------------|
B|--------7~--------|--------8~--------|--------10~--------|
G|------------------|------------------|-------------------|
D|------------------|------------------|-------------------|
A|------------------|------------------|-------------------|
E|------------------|------------------|-------------------|

E|------------------|------------------|-------------------|
B|------/12~--------|-------/8~--------|---------7~--------|
G|------------------|------------------|-------------------|
D|------------------|------------------|-------------------|
A|------------------|------------------|-------------------|
E|------------------|------------------|-------------------|

E|------------------|-------------------|
B|-------5~---------|--------3~---------|
G|------------------|-------------------|
D|------------------|-------------------|
A|------------------|-------------------|
E|------------------|-------------------|

Lead repeats this similarly at 0:34, 1:23, 2:31



[Repeated Main Theme]

   12 string guitar
E|-------0----------|-------0----------|-------0----------|
B|-----------0------|------------------|------------------|
G|-------------0----|-----------0------|-------------0----|
D|---2-0------------|---2-0---0--------|---4-0-----7------|
A|------------------|-3----------------|-5----------------|
E|-0----------------|-------------3----|------------------|

E|---------0--------|-------0----------|-------0----------|---------0--------|
B|-----------0------|-----------3------|-----------3------|-----------3------|
G|-----4-0-----0----|-------------0----|---2---------0----|-----2-2-----2----|
D|---7--------------|-----2------------|-----5---------0--|---0-----------0--|
A|-4----------------|-3----------------|-2----------------|------------------|
E|------------------|------------------|------------------|-2----------------|

repeats similarly throughout



[Lead Part 2]

  (0:50)
E|------------------------|------------------------|----------------------|
B|-------15--15--15\14----|-------15--15--15\14----|-----------15--15--15-|
G|---------------------12~|---------------------11~|----------------------|
D|------------------------|------------------------|----------------------|
A|------------------------|------------------------|----------------------|
E|------------------------|------------------------|----------------------|

E|------15-------------------|-----------------------------|
B|-pb17----17pbr15-17br19----|-----------15--15--15\14-----|
G|------------------------16-|-16~---------------------11~-|
D|---------------------------|-----------------------------|
A|---------------------------|-----------------------------|
E|---------------------------|-----------------------------|

E|---------------------------|----------------------------------|
B|----------15--15--15\14----|-------14-----14-14--15--17-15h17~|
G|------------------------14~|-----14--14~----------------------|
D|---------------------------|----------------------------------|
A|---------------------------|----------------------------------|
E|---------------------------|----------------------------------|



[Lead Part 3]

   (1:42)
E|------------------------|------------------------|----------------------|
B|-------15--15--15\14----|-------15--15--15\14----|-----------15--15--15-|
G|---------------------12~|---------------------11~|----------------------|
D|------------------------|------------------------|----------------------|
A|------------------------|------------------------|----------------------|
E|------------------------|------------------------|----------------------|

E|------15-------------------|-----------------------------|
B|-pb17----17pbr15-17br19----|-----------15--15--15\14-----|
G|------------------------16~|-------------------------11~-|
D|---------------------------|-----------------------------|
A|---------------------------|-----------------------------|
E|---------------------------|-----------------------------|

E|---------------------------|---------------------------------|
B|----------15--15--15\14----|-----14------14-14--15--17-15h17~|
G|------------------------14~|-------14~-----------------------|
D|---------------------------|---------------------------------|
A|---------------------------|---------------------------------|
E|---------------------------|---------------------------------|

E|------------------------|------------------------|----------------------|
B|-------15--15--15\14----|-------15--15--15\14----|-----------15--15--15-|
G|---------------------12~|---------------------11~|----------------------|
D|------------------------|------------------------|----------------------|
A|------------------------|------------------------|----------------------|
E|------------------------|------------------------|----------------------|

E|------15---------------------|-----------------------------|
B|-pb17----17pbr15-17brb19-17~-|-----------15--15--15\14-----|
G|-----------------------------|-------------------------11~-|
D|-----------------------------|-----------------------------|
A|-----------------------------|-----------------------------|
E|-----------------------------|-----------------------------|

E|---------------------------|---------------------------------|
B|----------15--15--15\14----|-----14------14-14--15--17-15h17~|
G|------------------------14~|-------14~-----------------------|
D|---------------------------|---------------------------------|
A|---------------------------|---------------------------------|
E|---------------------------|---------------------------------|



[Lead Part 2]

  (2:50) Rhythm guitar strums intro chords behind the lead
E|------------------------|------------------------|----------------------|
B|-------15--15--15\14----|-------15--15--15\14----|-----------15--15--15-|
G|---------------------12~|---------------------11~|----------------------|
D|------------------------|------------------------|----------------------|
A|------------------------|------------------------|----------------------|
E|------------------------|------------------------|----------------------|

E|------15-------------------|-----------------------------|
B|-pb17----17pbr15-17br19----|-----------15--15--15\14-----|
G|------------------------16-|-16~---------------------11~-|
D|---------------------------|-----------------------------|
A|---------------------------|-----------------------------|
E|---------------------------|-----------------------------|

E|---------------------------|--------------------------------|
B|----------15--15--15\14----|-----14-----14-14--15--17-15h17~|
G|------------------------14~|-------14~----------------------|
D|---------------------------|--------------------------------|
A|---------------------------|--------------------------------|
E|---------------------------|--------------------------------|

E|------------------------|------------------------|----------------------|
B|-------15--15--15\14----|-------15--15--15\14----|-----------15--15--15-|
G|---------------------12~|---------------------11~|----------------------|
D|------------------------|------------------------|----------------------|
A|------------------------|------------------------|----------------------|
E|------------------------|------------------------|----------------------|

E|------15---------17-17b19--15~|---17------------------------|
B|-pb17----17pbr15--------------|-----------15--15--15\14-----|
G|------------------------------|-------------------------11~-|
D|------------------------------|-----------------------------|
A|------------------------------|-----------------------------|
E|------------------------------|-----------------------------|

E|---------------------------|--------------------------------|
B|----------15--15--15\14----|-----14-----14-14--15--17-15h17\|
G|------------------------14~|-------14~----------------------|
D|---------------------------|--------------------------------|
A|---------------------------|--------------------------------|
E|---------------------------|--------------------------------|




[Outro 1]

E|---------------------------|---------------------------|
B|---------------------------|---------------------------|
G|---------------------------|---------------------------|
D|------------------7-9--7h9-|----7-------------7-9--7h9-|
A|-----------7-7-10----------|-----------7-7-10----------|
E|---------------------------|---------------------------|

E|---------------------------|---------------------------|
B|---------------------------|---------------------------|
G|---------------------------|---------------------------|
D|----7-------------7-9--7h9-|---------------------------|
A|-----------7-7-10----------|------------10---9-----5h7~|
E|---------------------------|---------------------------|

E|---------------------------|---------------------------|
B|---------------------------|---------------------------|
G|---------------------------|---------------------------|
D|------------------7-9--7h9-|----7-------------7-9--7h9-|
A|-(7\)------7-7-10----------|-----------7-7-10----------|
E|---------------------------|---------------------------|

E|---------------------------|
B|------------------------7--|
G|-------------7--------7----|
D|----7----------7h9---------|
A|---------------------------|
E|---------------------------|



[Outro 2]

E|---------------------------------|--------------------------------|
B|---------------------------------|-15b17-----15-------------------|
G|-7h9~----------12-14-14br15p12---|--------------14b16~------------|
D|------------14----------------14-|--------------------------------|
A|---------------------------------|--------------------------------|
E|---------------------------------|--------------------------------|

E|---------------15---------15-|-17b19~---17-15-15b17--b17---|
B|------15brb17-----pb17-------|-----------------------------|
G|-----------------------------|-----------------------------|
D|-----------------------------|-----------------------------|
A|-----------------------------|-----------------------------|
E|-----------------------------|-----------------------------|

E|-15~-------------------------|-----------------------------|
B|----------15--15--15\14------|---------15--15--15\14-------|
G|------------------------11~--|-----------------------14~---|
D|-----------------------------|-----------------------------|
A|-----------------------------|-----------------------------|
E|-----------------------------|-----------------------------|

E|---------------------------15---|
B|-----14-----14-14--15--17----17~|
G|-------14~----------------------|
D|--------------------------------|
A|--------------------------------|
E|--------------------------------|



[Outro 3]

E|---------------------------|---------------------------|
B|---------------------------|---------------------------|
G|---------------------------|---------------------------|
D|------------------7-9--7h9-|----7-------------7-9--7h9-|
A|-----------7-7-10----------|-----------7-7-10----------|
E|---------------------------|---------------------------|

E|---------------------------|---------------------------|
B|---------------------------|---------------------------|
G|---------------------------|---------------------------|
D|----7-------------7-9--7h9-|---------------------------|
A|-----------7-7-10----------|------------10---9-----5h7~|
E|---------------------------|---------------------------|

E|---------------------------|---------------------------|
B|---------------------------|---------------------------|
G|---------------------------|---------------------------|
D|------------------7-9--7h9-|----7-------------7-9--7h9-|
A|-(7\)------7-7-10----------|-----------7-7-10----------|
E|---------------------------|---------------------------|

E|---------------------------|
B|------------8---10-8b------|
G|----------------------9~---|
D|----7----------------------|
A|---------------------------|
E|---------------------------|



[Outro 4]

   (4:12)
E|------------------------|------------------------|----------------------|
B|--------0---------------|------------------------|-----15br17-----------|
G|-----------11b12---14---|-12~-----11-------------|------------12----14--|
D|------------------------|------------12h14~---12-|----------------------|
A|------------------------|------------------------|----------------------|
E|------------------------|------------------------|----------------------|

E|-------15---------15----|--------------------------|----------------------|
B|------------------------|--------------------------|---------------15--12-|
G|-14b16-----14b16__________16pbr14~-12-14-/16-12-14-|-----------------15---|
D|------------------------|--------------------------|-12~--h14~------------|
A|------------------------|--------------------------|----------------------|
E|------------------------|--------------------------|----------------------|

   keep strumming Dsus2/F# chord
E|----------------12--------|----------------------------|
B|-13-12--------15---15b17r-|----------------------------|
G|------15-14b16------------|-14b16~--16pbr14p12---14-14-|
D|--------------------------|-------------------14-------|
A|--------------------------|----------------------------|
E|--------------------------|----------------------------|

E|---------------------------------|----------------------|
B|---------------------------------|----------------------|
G|-14-/14--------------------------|----------------------|
D|---------------------------------|----------------------|
A|------------14\12-10-12-10-12/14-|----------------------|
E|---------------------------------|-10~------------------|



************************************

| x   Dead note
| h   Hammer-on
| p   Pull-off
| r   Release
| b   Bend
| br  Bend release
| pb  Pre-bend
| pbr Pre-bend release
| /   Slide up
| \   Slide down
| ~   Vibrato
Outros vídeos desta música
    17 exibições
      • ½ Tom
      • Am
      • Bbm
      • Bm
      • Cm
      • C#m
      • Dm
      • Ebm
      • Em
      • Fm
      • F#m
      • Gm
      • G#m
    • Adicionar à lista

    Afinação da cifra

    Afinador online

      0 comentários

      Ver todos os comentários

      Entre para o Cifra Club PRO

      Tenha acesso a benefícios exclusivos no App e no Site

      • Chega de anúncios

      • Badges exclusivas

      • Mais recursos no app do Afinador

      • Atendimento Prioritário

      • Aumente seu limite de lista

      • Ajude a produzir mais conteúdo

      Cifra Club Pro

      Aproveite o Cifra Club com benefícios exclusivos e sem anúncios
      Cifra Club Pro
      Aproveite o Cifra Club com benefícios exclusivos e sem anúncios
      Ops (: Contenido disponible sólo en portugués.
      OK