Cifra Club

O Meu Lugar É o Céu

Dunga

Cifra: Principal (violão e guitarra)
exibições 183.623
Tom: Em
[Intro] Em  D  C  C  Em  D  C  C

E|-------------------------------------------------|
B|-------------------------------------------------|
G|-----------------------------4-5-4-2-0-----------|
D|-2-2-4-5-5-----4-5-5-----4-5-----------4-2-0-----|
A|-----------5-5-------3-3-------------------------|
E|-------------------------------------------------|

E|-------------------------------------------------|
B|-------------------------------------------------|
G|-------------------------------------------------|
D|-2-2-4-5-5-----4-5-5-----4-5---------------------|
A|-----------5-5-------3-3-----3-------------------|
E|-------------------------------------------------|

                  G
O meu lugar é o Céu
                     D
E lá que eu quero morar
                 Em  D C
O meu lugar é o Céu
                     Cm6        G  D/F#
É lá que eu quero morar

   Em
Eu sei  não vale a pena
       D
Tanta grana, poder, fama
      C
Pois isso tudo aqui vou deixar
   Em                          D
E sei que lá no céu só chega aquele que na terra
       C
Seus bens soube compartilhar
     Em                   D
Por isso todo dia, dia-a-dia, a cada hora
    C
Eu sei com Deus eu posso contar
     Em                      D
E a cada passo certo que eu der aqui na terra
      C
Mais perto Dele eu vou ficar

                G
O meu lugar é o Céu
                     D
E lá que eu quero morar
                 Em  D C
O meu lugar é o Céu
                     Cm6        G  D/F#
É lá que eu quero morar

   Em
Eu sei  não vale a pena
       D
Tanta grana, poder, fama
      C
Pois isso tudo aqui vou deixar
   Em                          D
E sei que lá no céu só chega aquele que na terra
       C
Seus bens soube compartilhar
     Em                   D
Por isso todo dia, dia-a-dia, a cada hora
    C
Eu sei com Deus eu posso contar
     Em                      D
E a cada passo certo que eu der aqui na terra
      C
Mais perto Dele eu vou ficar

( Em  D  C  C  Em  D  C  C )

E|-------------------------------------------------|
B|-------------------------------------------------|
G|-----------------------------4-5-4-2-0-----------|
D|-2-2-4-5-5-----4-5-5-----4-5-----------4-2-0-----|
A|-----------5-5-------3-3-------------------------|
E|-------------------------------------------------|

E|-------------------------------------------------|
B|-------------------------------------------------|
G|--------------------------4-5-4------------------|
D|-2-2-4-5-5-----4-5-5-------------5---------------|
A|-----------5-5-------3-3-------------------------|
E|-------------------------------------------------|

Am                      D     Am                G
Buscar, bater, saber pedir... e até mesmo suplicar
Am              D
Eu tenho um endereço
    G         F    C F
No céu vou morar
    G         F      C
Eu tenho um lugar

                           Am    Bm                     C    D       G
É lá que eu quero moraaaaar, é la que eu quero moraaaaar

0 comentários

    mostrar mais comentários

    Conseguiu tocar?

    15tocaram0ainda não

    Grave um vídeo tocando O Meu Lugar É o Céu e mande pra gente!

    00:00 / 00:00
    outros vídeos desta música
    repetirqualidadeAutomático
    Outro vídeos desta música
      00:00 / 00:00
      OK