Notificações Amigos pendentes

      Dunga

      Realiza o Milagre

      87.775 exibições
      Tom: F
      Dm          C                  Bb
      Eu sei que Tu és o Deus do impossível
      Dm          C              Bb
      Eu sei que Tu és o Deus de milagres (2x)
      F             C
      Tu que ouves a nossa oração
      Gm               Dm
      Tu que escutas o nosso clamor
      F                 C
      Tu que sondas nosso coração
      Gm              Bb                 C
      Tu que sabes do que precisamos Senhor
                           F      C
      Realiza o milagre em mim Jesus
                            Dm      Bb
      Realiza o milagre em mim, Senhor
               F                   C            Dm        Bb
      Eu necessito da tua intervenção na minha vida.
      
      Solo 2x:
      
      
      E|--------------------------|
      B|--5-6-5-------------------|
      G|--------5---7-5-----------|
      D|----------7------7-5------|
      A|--------------------------|
      E|--------------------------|
      
      
      E|--------------------------|
      B|--5-6-5-------------------|
      G|--------5---7-5-----------|
      D|----------7------7-3------|
      A|--------------------------|
      E|--------------------------|
      
      
      E|--------------------------|
      B|--5-6-5-------------------|
      G|--------5---7-5-----------|
      D|----------7------7-5------|
      A|--------------------------|
      E|--------------------------|
      
      
      E|--------------------------|
      B|--------------------------|
      G|--------------------------|
      D|--3-5-5/7--7-7-7/8--7-5-3-|
      A|--------------------------|
      E|--------------------------|
      
        Composição: Emanuel StênioColaboração e revisão:
        • OTTO
        • nacefac
        • binhao
        • Ricardão
        • Fabio Silgra
        • +1

        Comentários 3

        140 .
        • Clovis Goes Clovis Goes: Em 06/06/2012 17:36

          Olá!! Confiram aqui no Cifra club " Clovis Goes - A lua e o sol". Se gostar compartilhe ok, um abraço a todos! Fiquem com Deus

        • nacefac nacefac: Em 18/12/2010 15:30

          As cifras estão incorretas

          • thiagokcio thiagokcio: Em 26/05/2011 09:59

            Por favor, poderia corrigir entao ?

        140 cancelar

        conseguiu tocar?

        • •••
        Thiago Rodrigues Mothé149 visualizações
          ver covers de outras músicas »
          0:00 / 0:00

          Capítulos

            2 versões de violão dificuldade exibições contribuição e correção
            2 versões de guitarra dificuldade exibições contribuição e correção
            2 versões de cavaco dificuldade exibições contribuição e correção
            2 versões de teclado dificuldade exibições contribuição e correção
            play/pausefechar subir/descer velocidade
            6ª corda E5ª corda A4ª corda D3ª corda G2ª corda B1ª corda E
              acordes
              publicidade
              fechar
              ok