Cifra Club

Aprenda

Big Bang Generation

Duran Duran

Cifra: Principal (violão e guitarra)
Tom: G
E |-------------------------------------------------------------------|
B |-------------------------------------------------------------------|
G |--15(b) 13--14--13--14--15(b)--13--14--15(b)-----------------------|
D |-------------------------------------------------------------------|
A |-------------------------------------------------------------------|
E |-------------------------------------------------------------------|

       F#5                           B5     D5  C5 B5
E |------------------------------------------------------------------------|
B |------------------------------------------------------------------------|
G |--------------------------------4---4----7---5--4-----------------------|
D |--4---4-----4(h)--2(h)--0(h)----4---4----7---5--4-----------------------|
A |--4---4-------------------------2---2----5---3--2-----------------------|
E |--2---2-----------------------------------------------------------------|

E |----------------------------------------------------------------------|
B |----------------------------------------------------------------------|
G |----------------------------------------------------------------------|
D |--4---4----4(h)--2(h)--0(h)-------------------------------------------|
A |--4---4---------------------------------------------------------------|
E |--2---4---------------------------------------------------------------|

        D5         C5        D5    D5   C5
E |---------------------------------------------------------------|
B |---------------------------------------------------------------|
G |--9---9--9---5---5--5---7--7----7---5--------------------------|
D |--9---9--9---5---5--5---7--7----7---5--------------------------|
A |--7---7--7---3---3--3---5--5----5---3--------------------------|
E |---------------------------------------------------------------|

E |---------------------------------------------------------------------|
B |---------------------------------------------------------------------|
G |--7--7(h)-----6(h)8---7--7(h)---9-------6(h)8------------------------|
D |---------------------------------------------------------------------|
A |---------------------------------------------------------------------|
E |---------------------------------------------------------------------|

E |---------------------------------------------------------------------|
B |---------------------------------------------------------------------|
G |--7--7(h)-----6(h)8---7--7(h)---9(p)8-----15(b) 13--14--13--14-------|
D |---------------------------------------------------------------------|
A |---------------------------------------------------------------------|
E |---------------------------------------------------------------------|

           F#5         D5      E5    E5   D5
E |------------------------------------------------------------------|
B |------------------------------------------------------------------|
G |--11---11--11---7---7--7----9----9---9----------------------------|
D |--11---11--11---7---7--7----9----9---9----------------------------|
A |--9----9---9----5---5--5----7----7---7----------------------------|
E |------------------------------------------------------------------|

F#5
Falling into space
B5
At the end of time
D5                     C5  B5
Black as the black in your eye
F#5
Staring through a hole in the ozone
B5
There's nobody home
D5            C5       B5
To play back your ansaphone
F#5
Climax out of blue
B5
Is it just another high?
          D5      C5       B5
No there must be something new
F#5
Now that I'm so alien

              E5   C5   D5
Entering the atmosphere
D5 C5               E5     C5    D5
Don't know what is waiting here (oh no)
D5   C5             E5  C5      D5
If there's nothing left to fear
D5        C5        E5  C5
When they come together in
D5           D5  C5
the Big Bang Generation

F#5
Teardrop in the sky
B5
Bursting my eye
D5        C5      B5
Sound of morning sighs
F#5
This life is stranger than fiction
B5
Surreal addiction
D5         C5   B5
It's all I recognize
F#5
Feeding off the habit
B5
Losing control
D5           C5     B5
Where is it leading to?
F#5
Now that I'm the alien

              E5   C5   D5
Entering the atmosphere
D5 C5               E5     C5    D5
Don't know what is waiting here (oh no)
D5   C5             E5  C5      D5
If there's nothing left to fear
D5       C5       E5  C5
When we come together in
D5           D5  C5
the Big Bang Generation

E5             C5        D5
(Feel like I'm losing control)
         D5   C5
Big Bang Generation
E5             C5    D5
(Now that I'm here alone)
         D5   C5
Big Bang Generation
E5             C5        D5
(Feel like I'm losing control)
         D5   C5
Big Bang Generation
E5              C5    D5
(Feel like I'm losing it)
                    D5     C5
We're gonna come together here

F#5
D5                E5     E5  D5
Where you coming from?
F#5
D5             E5         E5  D5
When we gonna burn out? Don't know
F#5
D5             E5     E5  D5
Having so much fun
F#5
D5                 E5         E5  D5
Greetings from the Big Bang Generation
F#5       D5
E5         E5  D5
Big Bang Generation
F#5
D5       E5                E5  D5
Meet you in the Big Bang Generation
F#5        D5
E5               E5       D5
Together in the Big Bang Generation
F#5       D5
E5                 E5        D5
Together we're the Big Bang Generation
Composição de John Taylor / Nick Rhodes / Simon LeBon / Warren Cuccurullo
613 exibições
    • ½ Tom
    • A
    • Bb
    • B
    • C
    • Db
    • D
    • Eb
    • E
    • F
    • F#
    • G
    • Ab
  • Adicionar à lista

    0 comentários

    Mostrar mais comentários

    Conseguiu tocar?

    0 Tocaram 0 Ainda não

    Grave um vídeo tocando Big Bang Generation e mande pra gente!

    00:00 / 00:00
    outros vídeos desta música
    repetir qualidade Automático
    Outros vídeos desta música
    00:00 / 00:00
    Automático
    OK