Cifra Club

Rio

Duran Duran

Cifra: Principal (violão e guitarra)
tom: G
E|----7----8---8---8---8---8---5---8--| 
B|----8----8---8---8---7---8---5---8--| 
G|------------------------------------| 
D|------------------------------------| 
A|------------------------------------| 
E|------------------------------------| 

This is the lead guitar part for the chorus 
 
E|----------------------------------------------------------------------| 
B|--5----12-14-12------15-?15-?17-?15---?\-5------12-14-12-----14-15-15-|
G|----------------------------------------------------------------------| 
D|----------------------------------------------------------------------| 
A|----------------------------------------------------------------------| 
E|----------------------------------------------------------------------| 
 
E|-------------------------------------------------------------------------------| 
B|--17--17--15-14---5---12-14-12--14-15-14-12--------12--13-12-------------------|
G|---------------------------------------------------------------14--------14--12|
D|-------------------------------------------------------------------------------| 
A|-------------------------------------------------------------------------------| 
E|-------------------------------------------------------------------------------|

Compositor não encontrado.
7.494 exibições
    • ½ Tom
    • A
    • Bb
    • B
    • C
    • Db
    • D
    • Eb
    • E
    • F
    • F#
    • G
    • Ab
  • Adicionar à lista

    0 comentários

    Ver todos os comentários

    Conseguiu tocar?

    1 Tocaram 1 Ainda não

    Grave um vídeo tocando Rio e nos envie!

    00:00 / 00:00
    Outros vídeos desta música
    Repetir Qualidade Automático
    Outros vídeos desta música
    00:00 / 00:00
    Automático

    Cifra Club Pro

    Aproveite o Cifra Club com benefícios exclusivos e sem anúncios
    Cifra Club Pro
    Aproveite o Cifra Club com benefícios exclusivos e sem anúncios
    OK