Cifra Club

Siento

Dusminguet

Cifra: Principal (violão e guitarra)
tom: C
  G        F         C      G       F         C
 Huepala ya hi viene el guitarrista de los ojos moraos calabrita, el mago de las dos cuerdas
E|----------------------------------------------|
B|---0---0-----------1--------0---0-------------|
G|-0---0-----2---2-2---0----0---0-----2---2-2-0-|
D|---------3---3--------------------3---3-------|
A|----------------------------------------------|
E|----------------------------------------------|

G            F           C        G          F              C
Siento tu mirada como el agua del río que se pierde en el cabal
                  G          F                C
tus caricias como moscas tu sonrisa es un cristal
E|--3------1-1-1-0-0-0-0-0--0-0-----------------|--0-0-0-0-0-----------1-1-1-0-0-|
B|----3---------------------1-1-3-3-3-3-3-3-3-3-|--1-1-1-1-1-3-3-3-3-3-------1-1-|
G|------------------------------4-4-4-4-4-4-4-4-|------------4-4-4-4-4-2-2-2-----|
D|----------------------------------------------|--------------------------------|
A|----------------------------------------------|--------------------------------|
E|----------------------------------------------|--------------------------------|

       G       F         C                 G        F          C
Esta mañana llovía como nunca me puse a llorar ante Tusitanramán
E|-0-0-------1-1---0-0-0----0-0-0-0-----------1-1-1-0-0-|
B|-1-1-3-3-3-1-1-1-1-1-1-1--1-1-1-1-3-3-3-3-3-1-1-1-1-1-|
G|-----4-4-4------------------------4-4-4-4-4-----------|
D|------------------------------------------------------|
A|------------------------------------------------------|
E|------------------------------------------------------|

        G        F           C                 G            F         C
hasta Mamara me vio volar la luna me puse a bailar con mi amigo Celicán
E|-0-0-0-----1-1---0-0-0----0-0-0-------------1-1-1-0-0-|
B|-1-1-1-3-3-1-1-1-1-1-1-1--1-1-1-1-3-3-3-3-3-1-1-1-1-1-|
G|-------4-4------------------------4-4-4-4-4-----------|
D|------------------------------------------------------|
A|------------------------------------------------------|
E|------------------------------------------------------|

  G   F   C   G   F   C  G   F   C
  Ay, ay, ay  ey, ey, ey uy, uy, uy
E|-5--3--3----5--3--3----5--3--3-|
B|-8--6--5----8--6--5----8--6--5-|
G|-7--5--5----7--5--5----7--5--5-|
D|-------------------------------|
A|-------------------------------|
E|-------------------------------|

           G           F           C
  ay cómo duele este dolor de corazón
E|-0-0-0-3-3-3-3-1-1-1-1-0-0------------------|
B|-1-1-1-3-3-3-3-1-1-1-1-1-1------------------|
G|--------------------------------------------|
D|--------------------------------------------|
A|--------------------------------------------|
E|--------------------------------------------|

  G        F         C      G       F         C
E|----------------------------------------------|
B|---0---0-----------1--------0---0-------------|
G|-0---0-----2---2-2---0----0---0-----2---2-2-0-|
D|---------3---3--------------------3---3-------|
A|----------------------------------------------|
E|----------------------------------------------|

G             F          C        G             F            C
Siento tus palabras como ecos de llanto que chocan en mi pesar
       G            F                      C
tus caderas como agujas tus bailes son mi soñar
E|-3----1-1-1-0-0-0-0-0-0-0-------------------0-0-0-0-0-----------1-1-3-3-3----------------|
B|---3------------------1-1-3-3--1-1-1-1-1-1--1-1-1-1-1-3-3-3-3-3-----1-1-1----------------|
G|--------------------------4-4--2-2-2-2-2-0------------4-4-4-4-4-2-2----------------------|
D|-----------------------------------------------------------------------------------------|
A|-----------------------------------------------------------------------------------------|
E|-----------------------------------------------------------------------------------------|

       G       F         C                 G        F          C
Esta mañana llovía como nunca me puse a llorar ante Tusitanramán
E|-0-0-------1-1---0-0-0----0-0-0-0-----------1-1-1-0-0-|
B|-1-1-3-3-3-1-1-1-1-1-1-1--1-1-1-1-3-3-3-3-3-1-1-1-1-1-|
G|-----4-4-4------------------------4-4-4-4-4-----------|
D|------------------------------------------------------|
A|------------------------------------------------------|
E|------------------------------------------------------|

        G        F           C                 G            F         C
hasta Mamara me vio volar la luna me puse a bailar con mi amigo Celicán
E|-0-0-0-----1-1---0-0-0----0-0-0-------------1-1-1-0-0-|
B|-1-1-1-3-3-1-1-1-1-1-1-1--1-1-1-1-3-3-3-3-3-1-1-1-1-1-|
G|-------4-4------------------------4-4-4-4-4-----------|
D|------------------------------------------------------|
A|------------------------------------------------------|
E|------------------------------------------------------|

G   F   C   G   F   C  G   F   C
Ay, ay, ay  ey, ey, ey uy, uy, uy
E|-5--3--3----5--3--3----5--3--3-|
B|-8--6--5----8--6--5----8--6--5-|
G|-7--5--5----7--5--5----7--5--5-|
D|-------------------------------|
A|-------------------------------|
E|-------------------------------|

           G           F           C
  ay cómo duele este dolor de corazón
E|-0-0-0-3-3-3-3-1-1-1-1-0-0------------------|
B|-1-1-1-3-3-3-3-1-1-1-1-1-1------------------|
G|--------------------------------------------|
D|--------------------------------------------|
A|--------------------------------------------|
E|--------------------------------------------|

Tuba/guitarra
E|----------------|
B|----------------|
G|----------------|
D|-2--2-2--2--2-2-|
A|-5--5-5--5--5-5-|
E|----------------|

trombon
E|---------------------|
B|-1-0-------0-1-0-----|
G|-----2-0-2-------2-0-|
D|---------------------|
A|---------------------|
E|---------------------|

Tuba guitarra
E|--------------------------------------------------|
B|--------------------------------------------------|
G|--------------------------------------------------|
D|-2--2-2--2--2-2-----------------------------------|
A|-5--5-5--5--5-5-----------------------------------|
E|--------------------------------------------------|

trombon
  G        F        C       G       F         C
E|-----------------------------------------------|
B|---0---0-----------1--------0---0--------------|
G|-0---0-----2---2-2---0----0---0-----2---2-2-0--| x 2
D|---------3---3--------------------3---3--------|
A|-----------------------------------------------|
E|-----------------------------------------------|

 G   F   C   G   F   C  G   F   C
 Ay, ay, ay  ey, ey, ey uy, uy, uy
E|-5--3--3----5--3--3----5--3--3-|
B|-8--6--5----8--6--5----8--6--5-|
G|-7--5--5----7--5--5----7--5--5-|
D|-------------------------------|
A|-------------------------------|
E|-------------------------------|

           G           F           C
  ay cómo duele este dolor de corazón
E|-0-0-0-3-3-3-1-1-1-5-3-3-|
B|-1-1-1-3-3-3-1-1-1-1-1-1-|
G|-------------------------|
D|-------------------------|
A|-------------------------|
E|-------------------------|

G   F   C   G   F   C  G   F   C
 Ay, ay, ay  ey, ey, ey uy, uy, uy
E|-5--3--3----5--3--3----5--3--3-|
B|-8--6--5----8--6--5----8--6--5-|
G|-7--5--5----7--5--5----7--5--5-|
D|-------------------------------|
A|-------------------------------|
E|-------------------------------|

           G           F           C
  ay cómo duele este dolor de corazón     venga subelo
E|-0-0-3-3-3-3-1-1-1-1-0-0-----------|
B|-1-1-3-3-3-3-1-1-1-1-1-1-----4-4-4-|
G|-----------------------------0-0-0-|
D|-----------------------------------|
A|-----------------------------------|
E|-----------------------------------|
00:00 / 00:00
Outros vídeos desta música
Repetir
Outros vídeos desta música
Composição de Joan garriga daniel portabella
4 exibições
    • ½ Tom
    • A
    • Bb
    • B
    • C
    • Db
    • D
    • Eb
    • E
    • F
    • F#
    • G
    • Ab
  • Adicionar à lista

    0 comentários

    Ver todos os comentários

    Conseguiu tocar?

    0 Tocaram 0 Ainda não

    Grave um vídeo tocando Siento e nos envie!

    Toque também

    1. Imagem do artista Peret El muerto vivo Peret
    2. Imagem do artista La Pegatina Y Volar La Pegatina
    3. Imagem do artista La Gossa Sorda Esbarzers La Gossa Sorda
    4. Imagem do artista Amparanoia Que te den Amparanoia

    Entre para oCifra Club PRO

    Tenha acesso a benefícios exclusivos no App e no Site

    • Chega de anúncios

    • Prioridade de compra em lançamentos

    • Mais recursos no app do Afinador

    • Atendimento Prioritário

    • Descontos nos produtos Cifra Club

    • Ajude a produzir mais conteúdo

    00:00 / 00:00

    Cifra Club Pro

    Aproveite o Cifra Club com benefícios exclusivos e sem anúncios
    Cifra Club Pro
    Aproveite o Cifra Club com benefícios exclusivos e sem anúncios
    OK