Notificações Amigos pendentes

      Echo & The Bunnymen

      Killing moon

      42.568 exibições
      Tom: C
      intro:
      
       Bm   Bm/A          G (2x)
      E|------------7(h)9---
      B|---3-5/7----------/3
      G|-4------------------
      D|--------------------
      
      
       Em/// Em/// C///  C///
      E|---------1-0---1-0----
      B|----------------------
      
       
      
      Em
      Under blue moon I saw you
         C
      So soon you'll take me
      Em
      Up in your arms to late to beg you
         C
      Or cancel it though I know it must be
          Em
      The killing time
        C
      Unwillingly mine
      CHORUS:
      G     Cm              G
      Fate, up against your will
      Cm                    G
      Through the thick and thin
      Cm             G
      He will wait until
      Cm                   G  Cm
      You give yourself to him
      Em/// Em/// C/// C///
         Em       
      In starlit nights I saw you
         C
      So cruelly you kissed me
           Em
      Your lips a magic world
          C
      The sky all hung with jewels
          Em
      The killing moon
           C
      Will come too soon
      REPEAT CHORUS & SOLO:
      
        Bm    Bm/A               G
      E|-------------------------------------------
      B|-0-3-0-5-0-7-0-8-0-10-8-7-5-0-5-0-5-0-5-0-5
      G|-------------------------------------------
      
      
        Bm    Bm/A               G
      E|----------------------------------------
      B|-0-3-0-5-0-7-0-8-0-10-8-7-8-0-8-0-8-0-8-
      G|----------------------------------------
      
      
        Bm    Bm/A               G
      E|----------------------------------------------
      B|-0-3-0-5-0-7-0-8-0-10-8-7-8/10-0-10-0-10-0-10-
      G|----------------------------------------------
      
      
        Bm    Bm/A               G
      E|----------------------------------------
      B|-0-3-0-5-0-7-0-8-0-10-8-7-3-0-3-0-3-0-3-
      G|----------------------------------------
      
      
             Em            C
      E|----------------------
      B|-3-0----------3-0-----
      G|----2-------------2---
      D|------2-------------2-
      

      Comentários 1

      140 .
      • eronrocha eronrocha: Em 06/05/2012 21:28

        woohoo super da hora!
        agora tem que por a cifra da silver!

      140 cancelar

      conseguiu tocar?

      • •••

      covers

      Grave um vídeo tocando Killing moon e mande pra gente!

      Ex.: http://www.youtube.com/watch?v=0IvSvIwGdwk
      ver covers de outras músicas »
      0:00 / 0:00

      Capítulos

        2 versões de violão dificuldade exibições contribuição e correção
        2 versões de guitarra dificuldade exibições contribuição e correção
        2 versões de cavaco dificuldade exibições contribuição e correção
        2 versões de teclado dificuldade exibições contribuição e correção
        1 versão de baixo exibições contribuição e correção
        1 versão de Guitar Proformatodownloadscontribuição
        play/pausefechar subir/descer velocidade
        6ª corda E5ª corda A4ª corda D3ª corda G2ª corda B1ª corda E
          acordes
          publicidade
          fechar
          ok