Cifra Club

Aprenda

Manuel

Ed Motta

Tab de baixo: Principal
1º Parte:
G|----------------------------------
D|---------------------3-4-5---7----
A|--3-------5--6--------------------
E|----------------------------------


2º Parte: (4x)
G|------------------------------------|
D|------------------------------------|
A|-|3---1--3---1--3---1--3--3--1--3---|
E|------------------------------------|


3º Parte:
G|----------------------------------------------------------------------------------------------
D|----------------------------------------------------------------------------------------------
A|-3--3-1-3--3-------------3--3-1-3--3----------------3------1----------------------------------
E|----------------1-----3-------------------1-----3-----------------5----4---1-----3--3--3--3--3

Colaboração e revisão:
  • Luis Claudio
8.968 exibições

0 comentários

Mostrar mais comentários

Conseguiu tocar?

0 Tocaram 0 Ainda não

Grave um vídeo tocando Manuel e mande pra gente!

00:00 / 00:00
outros vídeos desta música
repetir qualidade Automático
Outros vídeos desta música
00:00 / 00:00
Automático

Cifra Club Pro

Aproveite o Cifra Club com benefícios exclusivos e sem anúncios
7 dias grátis
Cifra Club Pro
Aproveite o Cifra Club com benefícios exclusivos e sem anúncios
7 dias grátis
OK