Cifra Club

Aprenda

Pisca-alerta

Ed Motta

Tab de baixo: Principal
Intro 3x                     Intro final
G --------------------||---------------------
D --------------------||---------------------
A --------------------||------------4--------
E 2--0H2-2-2--0H-2--3-||-2--0H2-2-0----------

Inicio Vocal  (parte 1)
G ----------------------------4/6-\4---4----------------------
D --------------------------4--------4---4--------------------
A -------------------2--4-5-------------------------------4---
E 2--0H2-2-2--0H-2--------------------------2--4-4--2--4-4----

------------------
---44-2---2-4-----
---------4--------
-2---------------3

Vocal  (parte 2)
G -----------------------------4/6\4---4--------------------
D ---------------------------4-------4---4------------------
A --------------------2--4-5------------------------------4-
E 2--0H2-2-2--0H-2--------------------------2--4-4--2--4-4--

Refrão (1) 3x                                Refrão final
G ---------------------------------||--------------------------
G ----444---------333--------------||---444---------333--------
A ---------2-2-1---------5-555-----||---------2-2-1---------5--
E -2-----------------5-5-------3-3-||-2-----------------5-5----
 
Repete [vocal parte 1 e 2]
Repete [Refrão]
Repete [Intro]

Acompanhamento Solo Piano Rhodes  (parte 1)
G ----------------------------4/6-\----4----------------------
D --------------------------4--------4---4--------------------
A -------------------2--4-5-------------------------------4---
E 2--0H2-2-2--0H-2--------------------------2--4-4--2--4-4----

----------------------
---44-22-00-----------
------------44-22-0---
-2------------------23

Acompanhamento   (parte 2)
G -----------------------------4/6-\---4--------------------
D ---------------------------4-------4---4------------------
A --------------------2--4-5------------------------------4-
E 2--0H2-2-2--0H-2--------------------------2--4-4--2--4-4--

Refrão (1) 5x                                Refrão final
G ---------------------------------||-----------------------------
G ----444---------333--------------||----444---------333----------
A ---------2-2-1---------5-555-----||---------2-2-1---------5-----
E -2-----------------5-5-------3-3-||-2-----------------5-5-------

Final
G ------
G ------
A ------
E 2---2\
Composição de Ed Motta / Lulu Santos
Colaboração e revisão:
  • Rodrigo Paula
1.661 exibições

0 comentários

Mostrar mais comentários

Conseguiu tocar?

0 Tocaram 0 Ainda não

Grave um vídeo tocando Pisca-alerta e mande pra gente!

00:00 / 00:00
outros vídeos desta música
repetir qualidade Automático
Outros vídeos desta música
00:00 / 00:00
Automático

Cifra Club Pro

Aproveite o Cifra Club com benefícios exclusivos e sem anúncios
7 dias grátis
Cifra Club Pro
Aproveite o Cifra Club com benefícios exclusivos e sem anúncios
7 dias grátis
OK