Cifra Club

Aprenda

Dive

Ed Sheeran

Cifra: Principal (violão e guitarra)
tom: Ab (forma dos acordes no tom de E) Capotraste na 4ª casa
[Intro] C  Am  F  G

[Primeira Parte]

              C
Well maybe I came on too strong
         Am             F  G
Maybe I waited too long
          C
Maybe I played my cards wrong

Oh just a little bit wrong
     Am  F
Baby I     apologize for it

[Pré-Refrão]

F
  I could fall, or I could fly
Am
  Here in your aeroplane
Em
  And I could live, I could die
 F
Hanging on the words you say
F
  And I’ve been known to give my all
Am
  And jumping in harder than
 G
Ten thousand rocks on the lake

[Refrão]

                  C
So don’t call me baby
            Am     F
Unless you mean it
           G           C
And don’t tell me you need me
                Am
If you don’t believe it
    F                G
So let me know the truth
   Am     G         G/B  C
Before I dive right into you

[Segunda Parte]

          C
You’re a mystery
                          
I have travelled the world 
             Am                 F      G
And there’s no other girl like you, no one
             C
What’s your history?
C                                    Am
Do you have a tendency to lead some people on?
          F           G
‘Cause I heard you do

[Pré-Refrão]

F
  I could fall, or I could fly
Am
  Here in your aeroplane
Em
  And I could live, I could die
 F
Hanging on the words you say
F
  And I’ve been known to give my all
Am
  And lie awake, every day
 G
Don't know how much I can take

[Refrão]

                  C
So don’t call me baby
            Am     F
Unless you mean it
           G           C
And don’t tell me you need me
                Am
If you don’t believe it
    F                G
So let me know the truth
   Am     G         G/B  C
Before I dive right into you

[Solo] C  C  Am  F  G
       C  C  Am  F  G

E|-----12-14b16~--14b16~--b16r14p12---------|
B|-/14------------------------------14~-\---|
G|------------------------------------------|
D|------------------------------------------|
A|------------------------------------------|
E|------------------------------------------|

E|------------------------------------------|
B|-/14-12\9---------------------------------|
G|----------11-9----11~------9~9~9~9~---9h11|
D|---------------11------/11---------11-----|
A|------------------------------------------|
E|------------------------------------------|

E|--------------12-----12--14b16-12---------|
B|-------12~----12h14---------------14------|
G|-11/13-----13-----------------------------|
D|------------------------------------------|
A|------------------------------------------|
E|------------------------------------------|

E|-12----12---------------------------------|
B|-12h14-12---------------------------------|
G|------------13/11-9---11~-9---9----9------|
D|---------------------------11-9h11-9h11---|
A|------------------------------------------|
E|------------------------------------------|

E|------------------------------------------|
B|------------------------------------------|
G|------------------------------------------|
D|------------------------------------------|
A|-11/9-7---7~------------------------------|
E|--------9---------------------------------|

[Pré-Refrão]

F
  I could fall, or I could fly
Am
  Here in your aeroplane
Em
  And I could live, I could die
 F
Hanging on the words you say
F
  And I’ve been known to give my all
Am
  Sitting back, looking at
G
Every mess that I've made

[Refrão]

                  C
So don’t call me baby
            Am      F
Unless you mean it
           G           C
And don’t tell me you need me
                Am
If you don’t believe it
    F                G
So let me know the truth
   Am     G         G/B  C
Before I dive right into you
   Am     G         G/B  C
Before I dive right into you
   Am     G         G/B  C
Before I dive right into you
Composição de Benny Blanco / Ed Sheeran / Julia Michaels
114.305 exibições
  • Simplificar cifra
    • ½ Tom
    • A
    • Bb
    • B
    • C
    • Db
    • D
    • Eb
    • E
    • F
    • F#
    • G
    • Ab
  • Adicionar à lista

    0 comentários

    Ver todos os comentários

    Conseguiu tocar?

    23 Tocaram 7 Ainda não

    Grave um vídeo tocando Dive e nos envie!

    00:00 / 00:00
    Outros vídeos desta música
    Repetir Qualidade Automático
    Outros vídeos desta música
    00:00 / 00:00
    Automático

    Cifra Club Pro

    Aproveite o Cifra Club com benefícios exclusivos e sem anúncios
    Cifra Club Pro
    Aproveite o Cifra Club com benefícios exclusivos e sem anúncios
    OK