Cifra Club

Lego House

Ed Sheeran

Cifra: Principal (violão e guitarra)
exibições 259.183
Tom: B
Intro: B5  F#4  G#m7  F#/E

Dedilhado Padrão:
Parte 1 de 2
   B5            F#4
E|------------------------------------------|
B|------------------------------------------|
G|---4-4-4-4---4-4---4-4--------------------|
D|---4-4-4-4---4-4---4-4--------------------|
A|-2---------2------------------------------|
E|-----------------2------------------------|

Parte 2 de 2
  G#m7            F#/E
E|------------------------------------------|
B|------------------------------------------|
G|---4-4-4-4---4-4---3-3--------------------|
D|---4-4-4-4---4-4---4-4--------------------|
A|------------------------------------------|
E|-4---------4-----0------------------------|


Primeira Parte - dedilhado padrão:
B5                     F#4  G#m7
   I'm gonna pick up the   pieces
             F#/E
And build a Lego house
B5                F#4
   If things go wrong 
        G#m7         F#/E
We can knock it down

B5                       F#4  G#m7
   My three words have two   meanings
                      F#/E   B5
But there's one thing on my mind
          F#4  G#m7     F#/E
It's all for        you

Pré-refrão - dedilhado padrão:

B5
   And it's dark in a cold December
                     F#4     G#m7  F#/E
But I've got you to keep me warm
B5
   If you're broken I will mend ya
                    F#4
And I'll keep you sheltered 
       G#m7              F#/E
From the storm that's raging on, now

Refrão - dedilhado padrão:

B5                       F#4/C#
   I'm out of touch, I'm out of love
G#m7
     I'll pick you up
             B5      F#4
When you're getting down
                       G#m7  E9
And out of all these things  I've done
                    F#4
I think I love you better now

B5                       F#4/C#
   I'm out of sight, I'm out of mind
G#m7                        B5  F#4
     I'll do it all for you in time
                       G#m7  E9
And out of all these things  I've done
                    F#4
I think I love you better now

( B5  F#4  G#m7  F#/E )

Refrão:
Parte 1 de 4
   B5             F#4/C#
E|------------------------------------------|
B|------------------------------------------|
G|---4-4-4-4---4-4---4-4--------------------|
D|---4-4-4-4---4-4---4-4--------------------|
A|-2---------2-----4------------------------|
E|------------------------------------------|

Parte 2 de 4
  G#m7             B5
E|------------------------------------------|
B|------------------------------------------|
G|---4-4-4-4---4-4---4-4--------------------|
D|---4-4-4-4---4-4---4-4--------------------|
A|-----------------2------------------------|
E|-4---------4------------------------------|

Parte 3 de 4
  F#4             G#m7
E|------------------------------------------|
B|------------------------------------------|
G|---4-4-4-4---4-4---4-4--------------------|
D|---4-4-4-4---4-4---4-4--------------------|
A|------------------------------------------|
E|-2---------2-----4------------------------|

Parte 4 de 4
   E9              F#4
E|------------------------------------------|
B|------------------------------------------|
G|---4-4-4-4---4-4---4-4--------------------|
D|---4-4-4-4---4-4---4-4--------------------|
A|------------------------------------------|
E|-0---------0-----2------------------------|

Segunda Parte:

B5                      F#4  G#m7
   I'm gonna paint you by   numbers
            F#/E
And colour you in
B5               F#4           G#m7
   If things go right we can frame it

                  F#/E
And put you on a wall

B5                   F#4  G#m7
   And it's so hard to   say it
                      F#/E  B5
But I've been here before
                   F#4    G#m7
Now I'll surrender up my heart
                 F#/E
And swap it for yours

Refrão:

B5                       F#4/C#
   I'm out of touch, I'm out of love
G#m7
     I'll pick you up
             B5      F#4
When you're getting down
                       G#m7  E9
And out of all these things  I've done
                    F#4
I think I love you better now

B5                       F#4/C#
   I'm out of sight, I'm out of mind
G#m7                        B5  F#4
     I'll do it all for you in time
                       G#m7  E9
And out of all these things  I've done
                    F#4
I think I love you better now

Terceira Parte:

G#m7        F#4     E9
     Don't hold me down
             F#4
I think my braces are breaking
          E9              F#4
And it's more than I can take

Terceira Parte:

Parte 1 de 4
  G#m7       F#4
E|------------------------------------------|
B|------------------------------------------|
G|---4-4-4-4---4-4-4-4----------------------|
D|---4-4-4-4---4-4-4-4----------------------|
A|------------------------------------------|
E|-4---------2------------------------------|

Parte 2 de 4
   E9
E|------------------------------------------|
B|------------------------------------------|
G|---4-4-4-4-4-4---4-4----------------------|
D|---4-4-4-4-4-4---4-4----------------------|
A|------------------------------------------|
E|-0-------------0--------------------------|

Parte 3 de 4
  F#4
E|------------------------------------------|
B|------------------------------------------|
G|---4-4-4-4-4-4---4-4----------------------|
D|---4-4-4-4-4-4---4-4----------------------|
A|------------------------------------------|
E|-2-------------2--------------------------|

Parte 4 de 4
   E9        F#4
E|------------------------------------------|
B|------------------------------------------|
G|---4-4-4-4---4-4-4-4----------------------|
D|---4-4-4-4---4-4-4-4----------------------|
A|------------------------------------------|
E|-0---------2------------------------------|

Pré-refrão:

B5
   And it's dark in a cold December
                     F#4     G#m7  F#/E
But I've got you to keep me warm
B5
   If you're broken I will mend ya
                    F#4
And I'll keep you sheltered 
       G#m7              F#/E
From the storm that's raging on, now

Refrão:

B5                       F#4/C#
   I'm out of touch, I'm out of love
G#m7
     I'll pick you up
             B5      F#4
When you're getting down
                       G#m7  E9
And out of all these things  I've done
                    F#4
I think I love you better now

B5                       F#4/C#
   I'm out of sight, I'm out of mind
G#m7                        B5  F#4
     I'll do it all for you in time
                       G#m7  E9
And out of all these things  I've done
                    F#4
I think I love you better now

B5                       F#4/C#
   I'm out of touch, I'm out of love
G#m7
     I'll pick you up
             B5      F#4
When you're getting down
                       G#m7  E9
And out of all these things  I've done
                    F#4
I think I love you better now

B5                       F#4/C#
   I'm out of sight, I'm out of mind
G#m7                        B5  F#4
     I'll do it all for you in time
                       G#m7  E9
And out of all these things  I've done
                    F#4
I think I love you better now

B5                       F#4/C#
   I'm out of touch, I'm out of love
G#m7
     I'll pick you up
             B5      F#4
When you're getting down
                       G#m7  E9
And out of all these things  I've done
                 F#4    B5
I will love you better now
Acordes para:

    0 comentários

    mostrar mais comentários

    Conseguiu tocar?

    50tocaram7ainda não

    Grave um vídeo tocando Lego House e mande pra gente!

    00:00 / 00:00
    outros vídeos desta música
    repetirqualidadeAutomático
    Outro vídeos desta música
      00:00 / 00:00
      Capítulos
      • Tocando a música
      • Dicas Iniciais / Equipamentos
      • Acordes da música
      • Tocando Introdução - Pré-Refrão
      • Introdução - Parte 1 de 2
      • Introdução - Parte 2 de 2
      • Acordes do Refrão
      • Tocando o Refrão
      • Refrão - Parte 1 de 4
      • Refrão - Parte 2 de 4
      • Refrão - Parte 3 de 4
      • Refrão - Parte 4 de 4
      • Dicas 2
      • Tocando a Terceira Parte
      • Terceira Parte - Parte 1 de 4
      • Terceira Parte - Parte 2 de 4
      • Terceira Parte - Parte 3 de 4
      • Terceira Parte - Parte 4 de 4
      • Tocando o Pré-Refrão (variação)
      • Dicas 3
      • Tocando o Final
      • Encerramento
      • Ficha Técnica
      OK