Cifra Club

Thinking Out Loud

Ed Sheeran

Cifra: Solo
exibições 19.992
Tom: G
[Parte 1]

E|------------------------------------------|
B|---------7-7-10-----10--------------------|
G|-----7---7-7--9b11---9--7h9--7~---x-x-----|
D|-----7h9--------------------------x-x-----|
A|-7h9--------------------------------------|
E|------------------------------------------|

[Parte 2]

E|------------------------------------------|
B|------------------------------------------|
G|-7----7------7---x------------------------|
D|-7h9--7h9~---7---x------------------------|
A|------------------------------------------|
E|------------------------------------------|

[Parte 3]

E|------------------------------------------|
B|---------7-7--------10--------------------|
G|-----7---7-7--9/11------11\9p7--9p7~------|
D|-----7h9----------------------------------|
A|-7h9--------------------------------------|
E|------------------------------------------|

[Parte 4]

E|----------------------12b14---10~--12b14--|
B|-10h12--10h12~--10~-----------------------|
G|------------------------------------------|
D|------------------------------------------|
A|------------------------------------------|
E|------------------------------------------|

[Parte 5]

E|-10-----10-----10-----10----10------------|
B|-10h12--10h12--10h12--10----12------------|
G|------------------------------------------|
D|------------------------------------------|
A|------------------------------------------|
E|------------------------------------------|

[Parte 6]

E|------------------------------------------|
B|-10----------------10---------------------|
G|--9h11p9\7----9/11------------------------|
D|------------------------------------------|
A|------------------------------------------|
E|------------------------------------------|

[Parte 7]

E|-10--10--10---9---9---9--7--7--7--5--5--5\|
B|-12--12--12--10--10--10--8--8--8--7--7--7\|
G|------------------------------------------|
D|------------------------------------------|
A|------------------------------------------|
E|------------------------------------------|
Acordes para:
    Colaboração e revisão:
    • Vinícius Dias
    • Henrique Ramos

    0 comentários

      mostrar mais comentários

      Conseguiu tocar?

      3tocaram1ainda não

      Grave um vídeo tocando Thinking Out Loud e mande pra gente!

      00:00 / 00:00
      outros vídeos desta música
      repetirqualidadeautomática
      Outro vídeos desta música
        00:00 / 00:00
        automática
        OK