Cifra Club

Aprenda

Falling Down

Edguy

Cifra: Principal (violão e guitarra)
tom: C#
Tablature explanation:

h  = hammer on             .   = Palm mute
p  = pull off              A.H = Artificial harmonics
b  = Bend                  pb  = prebend
r  = release bend          s   = slide

All guitars are 1/2 downed

[Intro:]

eb||----------|
Bb||10-8------|
Gb||-----10-9-|
Db||----------|
Ab||----------|
Eb||----------|
  ||          |
eb||----------|
Bb||----------|
Gb||10-9-7----|
Db||-------10-|
Ab||----------|
Eb||----------|

   C#5                 A#5                B5               G#5
eb||-------------------|------------------|----------------|-------------------|
Bb||-----10---8--------|10b11r---8---10---|8---------------|-------8--8b10r----|
Gb||10------------10---|------------------|----------------|9--10------------9-|
Db||-------------------|------------------|----------------|-------------------|
Ab||-------------------|------------------|----------------|-------------------|
Eb||-------------------|------------------|----------------|-------------------|
  ||
|
eb||-------------------|------------------|----------------|------------------|
Bb||-------------------|------------------|----------------|------------------|
Gb||7---10---9---7-----|10b12r---9---10---|9---------------|----7--9--9b10r---|
Db||-------------------|------------------|----------------|10-------------10-|
Ab||-------------------|------------------|----------------|------------------|
Eb||-------------------|------------------|----------------|------------------|

   C#5                 A#5                B5               C#5
eb||-------------------|------------------|----------------|------------------|
Bb||-----10---8--------|10b11r---8---10---|8---------------|------------------|
Gb||10------------10---|------------------|----------------|------------------|
Db||-------------------|------------------|----------------|------------------|
Ab||-------------------|------------------|----------------|------------------|
Eb||-------------------|------------------|----------------|------------------|
  ||
|
eb||-------------------|------------------|----------------|-------------------|
Bb||-------------------|------------------|----------------|-------------------|
Gb||7---10---9---7-----|10b12r---9---10---|9---------------|----7--9--9b10r----|
Db||-------------------|------------------|----------------|10--------------10-|
Ab||-------------------|------------------|----------------|-------------------|
Eb||-------------------|------------------|----------------|-------------------|

[Verse1:]

   Add some chorus to this guitar:
eb||5----------------------|7----------------------|-----------------------|1----------------|
Bb||5----------------------|5----------------------|8----------------------|1----------------|
Gb||5----------------------|5----------------------|5----------------------|2----------------|
Db||7----------------------|7----------------------|7----------------------|3----------------|
Ab||-----------------------|-----------------------|7----------------------|-----------------|
Eb||-----------------------|-----------------------|-----------------------|-----------------|
  ||
|
eb||-----------------------|-----------------------|-----------------------|--------------------|
Bb||-----------------------|-----------------------|-----------------------|--------------------|
Gb||-----------------------|-----------------------|-----------------------|--------------------|
Db||7---7---7p5h7----5h7---|7---7---7p5h7----5h7---|7---7---7p5h7----5h7---|7-----9-----10~-----|
Ab||-----------------------|-----------------------|-----------------------|8-----10----12~-----|
Eb||-----------------------|-----------------------|-----------------------|--------------------|
  No brain is left...

eb||5----------------------|7----------------------|-----------------------|1------------------|
Bb||5----------------------|5----------------------|8----------------------|1------------------|
Gb||5----------------------|5----------------------|5----------------------|2------------------|
Db||7----------------------|7----------------------|7----------------------|3------------------|
Ab||-----------------------|-----------------------|7----------------------|-------------------|
Eb||-----------------------|-----------------------|-----------------------|-------------------|
  ||
|
eb||-----------------------|-----------------------|-----------------------|------------------|
Bb||-----------------------|-----------------------|-----------------------|------------------|
Gb||-----------------------|-----------------------|-----------------------|------------------|
Db||7---7---7p5h7----5h7---|7---7---7p5h7----5h7---|7---7---7p5h7----5h7---|3-----3-----3-----|
Ab||-----------------------|-----------------------|-----------------------|3-----3-----3-----|
Eb||-----------------------|-----------------------|-----------------------|1-----1-----1-----|
   When he created...

[Bridge:]

eb||-----------------------|-----------------------|-----------------------|--------------------|
Bb||-----------------------|-----------------------|-----------------------|--------------------|
Gb||-----------------------|-----------------------|-----------------------|--------------------|
Db||3----------------------|3----------------------|-----------------------|--------------------|
Ab||1----------------------|1----------------------|3----------------------|3-------------------|
Eb||-----------------------|-----------------------|1----------------------|1-------------------|

eb||-----------------------|-----------------------|-----------------------|-------------------|
Bb||-----------------------|-----------------------|-----------------------|-------------------|
Gb||-----------------------|-----------------------|-----------------------|-------------------|
Db||3----------------------|3----------------------|-----------------------|5------------------|
Ab||1----------------------|3----------------------|5----------------------|3------------------|
Eb||-----------------------|-----------------------|3----------------------|-------------------|

eb||-----------------------|
Bb||-----------------------|
Gb||-----------------------|
Db||--------5--------------|
Ab||333333333---Fill-------|
Eb||-----------------------|
    ........

    Fill:
eb||----------|----|
Bb||10-8------|----|
Gb||-----10-9-|10--|
Db||----------|----|
Ab||----------|----|
Eb||----------|----|
  ||               |
eb||----------|----|
Bb||----------|----|
Gb||10-9-7----|7---|
Db||-------10-|----|
Ab||----------|----|
Eb||----------|----|

[Chorus 1:]

eb||-----------------------|-----------------------|-----------------------|--------------------|
Bb||-----------------------|-----------------------|-----------------------|--------------------|
Gb||-----------------------|-----------------------|-----------------------|--------------------|
Db||7----------------------|-----------------------|5----------------------|--------------------|
Ab||5----------------------|8----------------------|3----------------------|7-------------------|
Eb||-----------------------|6----------------------|-----------------------|5-------------------|

[Chorus 2:]

eb||-----------------------|-----------------------|-----------------------|-------------------|
Bb||-----------------------|-----------------------|-----------------------|-------------------|
Gb||-----------------------|-----------------------|-----------------------|-------------------|
Db||-----------------------|-----------------------|-----------------------|-------------------|
Ab||-----------------------|-----------------------|-----------------------|-------------------|
Eb||-----------------------|-----------------------|-----------------------|-------------------|
Composição de Tobias Sammet
Colaboração e revisão:
  • Taino Vieira
754 exibições
    • ½ Tom
    • A
    • Bb
    • B
    • C
    • Db
    • D
    • Eb
    • E
    • F
    • F#
    • G
    • Ab
  • Adicionar à lista

    0 comentários

    Ver todos os comentários

    Conseguiu tocar?

    0 Tocaram 0 Ainda não

    Grave um vídeo tocando Falling Down e nos envie!

    00:00 / 00:00
    outros vídeos desta música
    repetir qualidade Automático
    Outros vídeos desta música
    00:00 / 00:00
    Automático

    Cifra Club Pro

    Aproveite o Cifra Club com benefícios exclusivos e sem anúncios
    Cifra Club Pro
    Aproveite o Cifra Club com benefícios exclusivos e sem anúncios
    OK