Cifra Club

Aprenda

Mysteria

Edguy

Cifra: Principal (violão e guitarra)
Tom: E
Riff 1
D#|---------------------------------------------------------------|
A#|---------------------------------------------------------------|
F#|---------------------------------------------------------------| ( x 2 )
C#|-----------------------------------------------------------7---|
G#|--7---8-7---5---7---8-7---10---8---7---8-7---5---7---8-7---5---|
D#|----0-----0---0---0-----0----0---0---0-----0---0---0-----0-----|

Riff 2
|---------------------------------------------------------------------|
|---------------------------------------------------------------------|
|---------------------------------------------------------------------|
|--9---10-9---7---9---10-9---12---10--9---10-9---7---9---10-9-----7---|
|--7---8--7---5---7---8--7---10---8---7---8--7---5---7---8--7-----5---|
|----0------0---0---0------0----0---0---0------0---0---0------0-------|

|----------------------------------------------------------------|
|----------------------------------------------------------------|
|----------------------------------------------------------------|
|--9---10-9---7---9---10-9---12---10--9---10-9---7-------7---3---|
|--7---8--7---5---7---8--7---10---8---7---8--7---5-------7---3---|
|----0------0---0---0------0----0---0---0------0---0-0---5---1---|

Riff 3
|----------------------------------|
|----------------------------------|
|----------------------------------| ( x 12 )
|----------------------------------|
|----------------------------------|
|--0---0---0---0---0---0---0---0---|


Repete Riff 2


Riff 4
|---------------------------------------------------------------------------------------|
|-----------------------------------------------3-5-5-5--3-5-5-5--3-5-5-5--3-5-5-5------|
|-----------7---------7-----------------------------------------------------------------|
|-----------7---------7-----------3---------3---------------------------------------5---|
|--5-5---5--5---5-5---5-----------3---------3---------------------------------------5---|
|------------------------1-1---1--1---1-1---1---------------------------------------3---|
|                                                                                       |
|---------------------------------------------------------------------------------------|
|---------------------------------------------------------------------------------------|
|--7--------------------------------------------2-----------------2---------------------|
|--7---------------------3----------------------2-----------------2-----------------5---|
|--5---------------------3----------------------0-----------------0-----------------5---|
|------------------------1----------------------------------------------------------3---|

Refrão ( x 2 )
|----------------------------------------------------------------------|
|----------------------------------------------------------------------|
|----------------------------------------------------------------------|
|----------------------------------------------------------------------|
|--------7-10---5-7---8---5-7---5-7-------7-10---5-7---8---5-7---5-7---|
|--5-5-5------5-----5---5-----5-----5-5-5------5-----5---5-----5-------|
|                                                                      |
|----------------------------------------------------------------------|
|----------------------------------------------------------------------|
|--2-------------------------------------------------------------------|
|--2-------------------------------------------------------------------|
|--0-------------------------------------------------------------------|
|----------------------------------------------------------------------|


|----------------------------------------------------------------------|
|----------------------------------------------------------------------|
|----------------------------------------------------------------------|
|----------------------------------------------------------------------|
|--------7-10---5-7---8---5-7---5-7-------7-10---5-7---8---5-7---5-7---|
|--5-5-5------5-----5---5-----5-----5-5-5------5-----5---5-----5-------|
|                                                                      |
|----------------------------------------------------------------------|
|----------------------------------------------------------------------|
|----------------------------------------------------------------------|
|--5--------------------------------3----------------------------------|
|--5--------------------------------3----------------------------------|
|--3--------------------------------1----------------------------------|

Link Pos refrão
|-----------------------|
|-----------------------|
|-----------------------|
|--2---4---5-------10---|
|--0---2---3---5---8----|
|--------------3--------|

Riff 5
|--------------------------------------------------------------------|
|--------------------------------------------------------------------|
|--------------------------------------------------------------------|
|--2---2---2-2---2---2-2---2---2-0-2---2---2-2---2---2-2---2---2-3---|
|--------------------------------------------------------------------|
|----0---0-----0---0-----0---0-------0---0-----0---0-----0---0-------|
|                                                                    |
|--------------------------------------------------------------------|
|--------------------------------------------------------------------|
|--------------------------------------------------------------------|
|--2-2-----------------------------2-2-------------------------------|
|--2-2-----------------------------2-2-------------------------------|
|--0-0-----------------------------0-0-------------------------------|

|------------------------------------------------24---24---|
|----------------------------------------------------------|
|----------------------------------------------------------|
|--2---2---2-2---2---2-2---2---2-0-2---2---2-2-------------|
|----------------------------------------------------------|
|----0---0-----0---0-----0---0-------0---0-----------------|
|                                                          |
|----------------------------------------------------------|
|----------------------------------------------------------|
|----------------------------------------------------------|
|--2-2-----------------------------------------------------|
|--2-2-----------------------------------------------------|
|--0-0-----------------------------------------------------|


Repete Riff 2


Riff 6
|--------------------------------------------------------------------------------|
|-------------------------------------------3---5--------------------------------|
|-----------7---------7-----------------------------2----2---4---5---4---2-------|
|-----------7---------7-----------3------------------------------------------5---|
|--5-5---5--5---5-5---5-----------3------------------------------------------5---|
|------------------------1-1---1--1---1-1------------------------------------3---|
|                                                                                |
|--------------------------------------------------------------------------------|
|--------------------------------------------------------------------------------|
|--7------------------------------------------------2------------2---------------|
|--7---------------------3--------------------------2------------2-----------5---|
|--5---------------------3--------------------------0------------0-----------5---|
|------------------------1---------------------------------------------------3---|
|----------------------------------------------------------------------------------|
|----------------------------------------------------------------------------------|
|--------7-----------7-------7---------7-------------------------------------------|
|--------7-----------7-------7---------7---------3---------3---------3---------3---|
|--5-5---5---5-5-5---5---5---5---5-5---5---------3---------3---------3---------3---|
|------------------------------------------1-1---1---1-1---1---1-1---1---1-1---1---|
|                                                                                  |
|----------------------------------------------------------------------------------|
|----------------------------------------------------------------------------------|
|--7-------------------------------------------------------------------------------|
|--7---------------------------------------3---------------------------------------|
|--5---------------------------------------3---------------------------------------|
|------------------------------------------1---------------------------------------|

|-----------------------------------------------------|
|-----------------------------------------------------|
|-----------------------------------------------------|
|--------5-----------5-------5--------------------5---|
|--------5-----------5-------5--------------------5---|
|--3-3---3---3-3-3---3---3---3---3--3---3-3-3-3---3---|
|                                                     |
|-----------------------------------------------------|
|-----------------------------------------------------|
|-----------------------------------------------------|
|--5---------------------5------------------------5---|
|--5---------------------5------------------------5---|
|--3---------------------3------------------------3---|


Repete Refrão


Prelúdio
|-------------------------------------------------------------------------------|
|-------------------------------------------------------------------------------|
|-------------------------------------------------------------------------------|
|--2---3---3---3---2---2---2-----------9---10--9---10--9---10--12---10--9---7---|
|--2---3---3---3---2---2---2---21/10---7---8---7---8---7---8---10---8---7---5---|
|--0---1---3---1---0---0---0---19/8---------------------------------------------|

|-----------------------------------------------------------------------|
|-----------------------------------------------------------------------|
|-----------------------------------------------------------------------|
|--9---10--9---10--9---10--12---10--7---2-----------9---10--9---10--9---|
|--7---8---7---8---7---8---10---8---5---2---21/10---7---8---7---8---7---|
|---------------------------------------0---19/8------------------------|

|-------------------------------------------------------------------------|
|-------------------------------------------------------------------------|
|------------------------------------------------------------2---5---10---|
|--10--12---10--9---7---9---10--9---10--9---10--12---10--7---2---5---10---|
|--8---10---8---7---5---7---8---7---8---7---8---10---8---5---0---3---8----|
|-------------------------------------------------------------------------|

|-------------------------------------------|          |-------------|
|-------------------------------------------|          |-------------|
|-------------------------------------------| ( x 2 )  |---5----10---|
|--9---10--9---10--9---10--12---10--9---7---|          |---5----10---|
|--7---8---7---8---7---8---10---8---7---5---|          |---3----8----|
|-------------------------------------------|          |-------------|









Solo Base
|--------------------------------------------------------------------------------|
|--------------------------------------------------------------------------------|
|--------------------------------------------------------------------------------|( x 4 )    
|--9---10--9---10--9---10--12---10--9---7---9---10--9---10--9---10--12---10--9---|
|--7---8---7---8---7---8---10---8---7---5---7---8---7---8---7---8---10---8---7---|
|--------------------------------------------------------------------------------|

|------------------|
|------------------|
|---7----5----10---|
|---7----5----10---|
|---5----3----8----|
|------------------|

|--------------------------------------------------------------------------------|
|--------------------------------------------------------------------------------|
|--------------------------------------------------------------------------------|
|--9---10--9---10--9---10--12---10--9---7---9---10--9---10--9---10--12---10--9---|
|--7---8---7---8---7---8---10---8---7---5---7---8---7---8---7---8---10---8---7---|
|--------------------------------------------------------------------------------|

|-----------------|
|-----------------|
|---7----5----9---|
|---7----5----9---|
|---5----2----7---|
|-----------------|

Solo
|---0---12---12---10---12---8---10---7---7---8---4---4---5---7---8---7---8---10---|
|---------------------------------------------------------------------------------|
|---------------------------------------------------------------------------------|
|---------------------------------------------------------------------------------|
|---------------------------------------------------------------------------------|
|---------------------------------------------------------------------------------|

|---11---12/13---12---12---16---16---16---16/(12)---16---16---16---16---16/(12)---12---|
|--------------------------------------------------------------------------------------|
|--------------------------------------------------------------------------------------|
|--------------------------------------------------------------------------------------|
|--------------------------------------------------------------------------------------|
|--------------------------------------------------------------------------------------|

|---13---12---12---16---16---16---16/(12)---12---13---12---10---8---7---8---7---5---4---|
|---------------------------------------------------------------------------------------|
|---------------------------------------------------------------------------------------|
|---------------------------------------------------------------------------------------|
|---------------------------------------------------------------------------------------|
|---------------------------------------------------------------------------------------|

|---4---4---5---4---1---4---1---0-------------------------------------------------------|
|-----------------------------------3---3---5---6---5---3---5---3---1---3---1---0---1---|
|---------------------------------------------------------------------------------------|
|---------------------------------------------------------------------------------------|
|---------------------------------------------------------------------------------------|
|---------------------------------------------------------------------------------------|

|-----------------------------------------------------------------5--------7---|
|---0---1------------------------------------------------------9-------10------|
|-----------------------------------------------5---7---9---9-------9----------|
|-----------2---2---0---2---3---5---6---7---9----------------------------------|
|------------------------------------------------------------------------------|
|------------------------------------------------------------------------------|


|---------8--------10--------12---12---12---12---13---13---17---17---16---16---|
|-----12-------13--------15----------------------------------------------------|
|--9--------9---------9--------------------------------------------------------|
|------------------------------------------------------------------------------|
|------------------------------------------------------------------------------|
|------------------------------------------------------------------------------|

|--13---16---13---12---13---12---10---12---10---8---10---8---7---8---7---7---7---7/19---|
|---------------------------------------------------------------------------------------|
|---------------------------------------------------------------------------------------|
|---------------------------------------------------------------------------------------|
|---------------------------------------------------------------------------------------|
|---------------------------------------------------------------------------------------|

|---19---7---5---5---4---4---1---1---0---0---1---0---1-------------------|
|--------------------------------------------------------15/25---25/13---|
|------------------------------------------------------------------------|
|------------------------------------------------------------------------|
|------------------------------------------------------------------------|
|------------------------------------------------------------------------|


Repete Riff 1 ( x 2 )


Repete Refrão ( x 4 )


Repete Riff 1


Riff 7
|---------------------------------------------------------------|
|---------------------------------------------------------------|
|---------------------------------------------------------------|
|-----------------------------------------------------7-6---2---|
|--7---8-7---5---7---8-7---10---8---7---8-7---5---7-------------|
|----0-----0---0---0-----0----0---0---0-----0---0---0-----0-----|


Repete Riff 1


Riff Final
|-------------------------------------------------------|
|-------------------------------------------------------|
|-------------------------------------------------------|
|---------------------------------------------------2---|
|--7---8-7---5---7---8-7---10---8---7---8-7---5-----2---|
|----0-----0---0---0-----0----0---0---0-----0---0---0---|
Colaboração e revisão:
  • Gian Oneda
  • Rodrigo Bissoli
9.058 exibições
    • ½ Tom
    • A
    • Bb
    • B
    • C
    • Db
    • D
    • Eb
    • E
    • F
    • F#
    • G
    • Ab
  • Adicionar à lista

    0 comentários

    Mostrar mais comentários

    Conseguiu tocar?

    0 Tocaram 0 Ainda não

    Grave um vídeo tocando Mysteria e mande pra gente!

    00:00 / 00:00
    outros vídeos desta música
    repetir qualidade Automático
    Outros vídeos desta música
    00:00 / 00:00
    Automático

    Cifra Club Pro

    Aproveite o Cifra Club com benefícios exclusivos e sem anúncios
    Cifra Club Pro
    Aproveite o Cifra Club com benefícios exclusivos e sem anúncios
    OK