Cifra Club

Aprenda

Power and Majesty (2000)

Edguy

Cifra: Principal (violão e guitarra)
Tom: B
*Disable word wrap under edit to view this document correctly!

Tablature explanation:

h  = hammer on             .   = Palm mute
p  = pull off              A.H = Artificial harmonics
b  = Bend                  pb  = prebend
r  = release bend          s  = slide
Xs = Pickslide

All guitars are 1/2 downed


[Intro:]

    Left                                                                                Center
eb||---|-----|----------------|-----|----------------|-----|----------------|----------|----------|
Bb||---|-----|----------------|-----|----------------|-----|----------------|----------|----------|
Gb||---|-----|----------------|-----|----------------|-----|----------------|---A.H----|---A.H----|
Db||---|5----|3s5-3---3-------|5----|3s5-3---3-------|-----|3s5-3---3-------|5--5b6-r5-|3--3b5-r3-|
Ab||5--|3----|------6-----6-5-|3----|------6-----6-5-|6----|------6-----6-5-|----------|----------|
Eb||3--|-----|----------------|-----|----------------|4----|----------------|----------|----------|
  ||.                                                                                             | Repeat X 2
  ||Right                                                                               Center    |
eb||---|-----|----------------|-----|----------------|-----|----------------|----------|----------|
Bb||---|-----|----------------|-----|----------------|-----|----------------|----------|----------|
Gb||---|-----|----------------|-----|----------------|-----|----------------|----------|----------|
Db||---|5----|----------------|5----|----------------|-----|----------------|8---------|8---------|
Ab||5--|3----|5s6-5-3-5---3---|3----|5s6-5-3-5---3---|6----|5s6-5-3-5---3---|6---------|5-------5-|
Eb||3--|-----|--------------6-|-----|--------------6-|4----|--------------6-|6---------|6-------3-|


    Left
eb||----------------|----------------|----------------|----------------|
Bb||----------------|----------------|----------------|----------------|
Gb||----------------|----------------|----------------|----------------|
Db||1---1---1---1---|3s5-3---3-------|1---1---1---1---|2s5-3---3-------|
Ab||3-333-333-333-33|------6-----6-5-|3-333-333-333-33|------6-----6-5-|
Eb||----------------|----------------|----------------|----------------|
  ||. ... ... ... ..                  . ... ... ... ..                 |
  ||Right                                                              |
eb||----------------|----------------|----------------|----------------|
Bb||----------------|----------------|----------------|----------------|
Gb||----------------|----------------|----------------|----------------|
Db||1---1---1---1---|----------------|1---1---1---1---|----------------|
Ab||3-333-333-333-33|5s6-5-3-5---3---|3-333-333-333-33|5s6-5-3-5---3---|
Eb||----------------|--------------6-|----------------|--------------6-|
    . ... ... ... ..                  . ... ... ... ..

    Left                              Center
eb||----------------|----------------|----------------|----------------|
Bb||----------------|----------------|----------------|----------------|
Gb||----------------|----------------|-----A.H--------|-----A.H--------|
Db||----------------|3s5-3---3-------|5----5b6---r5---|3----3b5---r3---|
Ab||6---6---6---6---|------6-----6-5-|----------------|----------------|
Eb||4-444-444-444-44|----------------|----------------|----------------|
  ||. ... ... ... ..                                                   | Repeat X 2
  ||Right                             Center                           |
eb||----------------|----------------|----------------|----------------|
Bb||----------------|----------------|----------------|----------------|
Gb||----------------|----------------|3----5----3-----|----------------|
Db||----------------|----------------|1-1111-1111-1111|----------------|
Ab||6---6---6---6---|5s6-5-3-5---3---|----------------|1111111111111111|
Eb||4-444-444-444-44|--------------6-|----------------|----------------|
    . ... ... ... ..                    ...  .... .... ................


[Verse:]
    Both
eb||----------------|----------------|
Bb||----------------|----------------|
Gb||----------------|----------------|
Db||5---------------|5-*-----6---8---|
Ab||3---------------|3-*-----4---6---|
Eb||----------------|----------------|

    Both
eb||----------------|----------------|----------------|----------------|
Bb||----------------|----------------|----------------|----------------|
Gb||----------------|----------------|----------------|----------------|
Db||5---------------|8---------------|8---------------|7-------8---7---|
Ab||3---------------|6---------------|5---------------|5-------5---5---|
Eb||----------------|----------------|----------------|----------------|

    Both
eb||----------------|----------------|----------------|----------------|
Bb||----------------|----------------|----------------|----------------|
Gb||----------------|----------------|----------------|----------------|
Db||5---------------|8---------------|----------------|----------------|
Ab||3---------------|6---------------|6---------------|----Xs--6---8---|
Eb||----------------|----------------|4---------------|----Xs--4---6---|


    Left
eb||----------------|----------------|----------------|----------------|
Bb||----------------|----------------|----------------|----------------|
Gb||----------------|----------------|----------------|----------------|
Db||----------------|----------------|----------------|----------------|
Ab||3-333-333-333-33|6-666-666-666-66|5-555-555-555-55|5-555-555-555-55|
Eb||----------------|----------------|----------------|----------------|
  ||. ... ... ... .. . ... ... ... .. . ... ... ... .. . ... ... ... ..|
  ||Right                                                              |
eb||----------------|----------------|----------------|----------------|
Bb||----------------|----------------|----------------|----------------|
Gb||----------------|----------------|----------------|----------------|
Db||1-111-111-111-11|5-555-555-555-55|3-333-333-333-33|3-333-333-333-33|
Ab||----------------|----------------|----------------|----------------|
Eb||----------------|----------------|----------------|----------------|
    . ... ... ... .. . ... ... ... .. . ... ... ... .. . ... ... ... ..

    Left
eb||----------------|----------------|----------------|----------------|
Bb||----------------|----------------|----------------|----------------|
Gb||----------------|----------------|----------------|----------------|
Db||----------------|----------------|----------------|----------------|
Ab||3-333-333-333-33|6-666-666-666-66|----------------|----------------|
Eb||----------------|----------------|4-444-444-444-44|4-444-444-444-44|
  ||. ... ... ... .. . ... ... ... .. . ... ... ... .. . ... ... ... ..|
  ||Right                                                              |
eb||----------------|----------------|----------------|----------------|
Bb||----------------|----------------|----------------|----------------|
Gb||----------------|----------------|----------------|----------------|
Db||1-111-111-111-11|5-555-555-555-55|----------------|----------------|
Ab||----------------|----------------|3-333-333-333-33|3-333-333-333-33|
Eb||----------------|----------------|----------------|----------------|
    . ... ... ... .. . ... ... ... .. . ... ... ... .. . ... ... ... ..


[Bridge:]
    Both
eb||----------------|----------------|----------------|----------------|
Bb||----------------|----------------|----------------|----------------|
Gb||----------------|----------------|----------------|----------------|
Db||----------------|----------------|----------------|----------------|
Ab||----------------|----------------|----------------|5-5-5-*-----1---|
Eb||3-1-3-1-3-1-3-4-|3-1-3-1-3-4-3-1-|3-1-3-1-3-4-3-1-|3-3-3-*-----3---|


[Chorus:]
    Left
eb||----------------|----------------|----------------|----------------|
Bb||----------------|----------------|----------------|----------------|
Gb||----------------|----------------|----------------|----------------|
Db||1---1---1---1---|3s5-3---3-------|1---1---1---1---|2s5-3---3-------|
Ab||3-333-333-333-33|------6-----6-5-|3-333-333-333-33|------6-----6-5-|
Eb||----------------|----------------|----------------|----------------|
  ||. ... ... ... ..                  . ... ... ... ..                 |
  ||Right                                                              |
eb||----------------|----------------|----------------|----------------|
Bb||----------------|----------------|----------------|----------------|
Gb||----------------|----------------|----------------|----------------|
Db||1---1---1---1---|----------------|1---1---1---1---|----------------|
Ab||3-333-333-333-33|5s6-5-3-5---3---|3-333-333-333-33|5s6-5-3-5---3---|
Eb||----------------|--------------6-|----------------|--------------6-|
    . ... ... ... ..                  . ... ... ... ..

    Left                              Center
eb||----------------|----------------|----------------|----------------|
Bb||----------------|----------------|----------------|----------------|
Gb||----------------|----------------|3----5----3-----|----------------|
Db||----------------|3s5-3---3-------|1-1111-1111-1111|----------------|
Ab||6---6---6---6---|------6-----6-5-|----------------|1111111111111111|
Eb||4-444-444-444-44|----------------|----------------|----------------|
  ||. ... ... ... ..                                                   | Repeat X 2
  ||Right                             Center                           |
eb||----------------|----------------|----------------|----------------|
Bb||----------------|----------------|----------------|----------------|
Gb||----------------|----------------|3----5----3-----|----------------|
Db||----------------|----------------|1-1111-1111-1111|----------------|
Ab||6---6---6---6---|5s6-5-3-5---3---|----------------|1111111111111111|
Eb||4-444-444-444-44|--------------6-|----------------|----------------|
    . ... ... ... ..                    ...  .... .... ................

[Verse:]

[Bridge:]

[Chorus:]

[Stick:]
    Both
eb||----------------|----------------|----------------|----------------|
Bb||----------------|----------------|----------------|----------------|
Gb||5-----5-----5---|8-----8-----8---|8-----8-----8---|7-----8-----7---| Repeat X 2
Db||3-33333-33333-33|6-66666-66666-66|5-55555-55555-55|5-55555-55555-55|
Ab||----------------|----------------|----------------|----------------|
Eb||----------------|----------------|----------------|----------------|
      ....  ....       ....  ....  ..   ....  ....  ..   ....  ....  ..

    Both
eb||----------------|----------------|----------------|----------------|
Bb||----------------|----------------|----------------|----------------|
Gb||5---------------|8---------------|8---------------|7---------------|
Db||3---------------|6---------------|5---------------|5---------------|
Ab||----------------|----------------|----------------|----------------|
Eb||----------------|----------------|----------------|----------------|

    Both
eb||----------------|----------------|----------------|----------------|
Bb||----------------|----------------|----------------|----------------|
Gb||5-----5-----5---|8-----8-----8---|8-----8-----8---|7-----8-----7---|
Db||3-33333-33333-33|6-66666-66666-66|5-55555-55555-55|5-55555-55555-55|
Ab||----------------|----------------|----------------|----------------|
Eb||----------------|----------------|----------------|----------------|
      ....  ....       ....  ....  ..   ....  ....  ..   ....  ....  ..

    Both
eb||----------------|----------------|----------------|----------------|
Bb||----------------|----------------|----------------|----------------|
Gb||5-----5-----5---|8-----8-----8---|8-----8-----8---|7-Use the-------|
Db||3-33333-33333-33|6-66666-66666-66|5-55555-55555-55|5-tremoloarm to-|
Ab||----------------|----------------|----------------|--produce a-----|
Eb||----------------|----------------|----------------|--"divebomb"----|


[Solo:]

eb||-------------------|--------------------------|-----------------------------------------------|--------------------------------------|
Bb||-------------------|--------------------------|-----------------------------------------------|---------------13-15-16-15b15---15-13-|
Gb||12---15b17-17------|pb17-r15-13-12------------|-----------------------------------------------|------12-13-15------------------------|
Db||-------------------|-----------------15-13-12-|13-15-13-12-13-12----12|13-15-13-12-13-12----12|13-15---------------------------------|
Ab||-------------------|--------------------------|------------------15----------------------15---|--------------------------------------|
Eb||-------------------|--------------------------|-----------------------------------------------|--------------------------------------|

eb||----------------|----------------|------------------------------------------------|-----------------------------|
Bb||13--16--16b18---|15b16-r---------|------------------------------------------------|-----------------------------|
Gb||----------------|--------15------|12-12-12-12-13-12-------------------------------|-----------------------------|
Db||----------------|-----------15---|------------------15-13-12-12-12-12-12-12-------|---------------12------------|
Ab||----------------|----------------|------------------------------------------15-13-|15-15-15-15-15----15-13-15\--|
Eb||----------------|----------------|------------------------------------------------|-----------------------------|

eb||15b16----r------|15b16----r-15b16r-|----------------|----------------|
Bb||----------------|------------------|18b20----r------|18b20----r--15--|
Gb||----------------|------------------|----------------|----------------|
Db||----------------|------------------|----------------|----------------|
Ab||----------------|------------------|----------------|----------------|
Eb||----------------|------------------|----------------|----------------|
  ||                                                                     |
eb||----------------|------------------|----------------|----------------|
Bb||16b18----r------|16b18----r-16b18r-|15b16----r------|15b16----r------|
Gb||----------------|------------------|----------------|------------15--|
Db||----------------|------------------|----------------|----------------|
Ab||----------------|------------------|----------------|----------------|
Eb||----------------|------------------|----------------|----------------|

eb||15b16----r------|15b16----r---16---|16b18----r---15---|13h15p13h15p13h15p13h15p13h15p13----------|
Bb||----------------|------------------|------------------|---------------------------------15---\---|
Gb||----------------|------------------|------------------|------------------------------------------|
Db||----------------|------------------|------------------|------------------------------------------|
Ab||----------------|------------------|------------------|------------------------------------------|
Eb||----------------|------------------|------------------|------------------------------------------|
  ||                                                                                                 |
eb||----------------|------------------|------------------|------------------------------------------|
Bb||16b18----r------|16b18----r---18---|18b20----r---16---|15h16p15h16p15h16p15h16p15h16p15----------|
Gb||----------------|------------------|------------------|---------------------------------16---\---|
Db||----------------|------------------|------------------|------------------------------------------|
Ab||----------------|------------------|------------------|------------------------------------------|
Eb||----------------|------------------|------------------|------------------------------------------|

eb||----------------|----------------|15--------------|22-22-22---\----|
Bb||-------------15-|----------15-15-|----------------|----------------|
Gb||12--------------|----------------|----------------|----------------|
Db||----------------|----------------|----------------|----------------|
Ab||----------------|----------------|----------------|----------------|
Eb||----------------|----------------|----------------|----------------|
  ||                                                                   |
eb||----------------|----------------|----------------|15-15-15---\----|
Bb||----------------|----------------|15--------------|----------------|
Gb||-------------12-|----------12-12-|----------------|----------------|
Db||12--------------|----------------|----------------|----------------|
Ab||----------------|----------------|----------------|----------------|
Eb||----------------|----------------|----------------|----------------|


Rhythm during solo

eb||----------------|----------------|----------------|----------------|
Bb||----------------|----------------|----------------|----------------|
Gb||----------------|----------------|----------------|----------------|
Db||----------------|----------------|----------------|----------------|
Ab||3-333-333-333-33|3-333-333-333-33|----------------|----------------|
Eb||----------------|----------------|3-333-333-333-33|3-333-333-333-33|

eb||----------------|----------------|----------------|----------------|
Bb||----------------|----------------|----------------|----------------|
Gb||----------------|----------------|----------------|----------------| Repeat X 2
Db||----------------|----------------|----------------|----------------|
Ab||3-333-333-333-33|3-333-333-333-33|6-666-666-666-66|----------------|
Eb||----------------|----------------|----------------|6-666-666-666-66|

eb||----------------|----------------|----------------|----------------|
Bb||----------------|----------------|----------------|----------------|
Gb||----------------|----------------|----------------|----------------|
Db||----------------|----------------|----------------|----------------|
Ab||----------------|----------------|----------------|5-5-5-*-----1---|
Eb||3-1-3-1-3-1-3-4-|3-1-3-1-3-4-3-1-|3-1-3-1-3-4-3-1-|3-3-3-*-----3---|

[Chorus:]

[Scenery:]

eb||----------------|
Bb||----------------|
Gb||----------------|
Db||----------------|
Ab||5---------------|
Eb||3---------------|

[Chorus:]

[Outro:]

    Left
eb||-----|----------------|-----|
Bb||-----|----------------|-----|
Gb||-----|----------------|-----|
Db||5----|3s5-3---3-------|5-*--|
Ab||3----|------6-----6-5-|3-*--|
Eb||-----|----------------|-----|
  ||.                           |
  ||Right                       |
eb||-----|----------------|-----|
Bb||-----|----------------|-----|
Gb||-----|----------------|-----|
Db||5----|----------------|5-*--|
Ab||3----|5s6-5-3-5---3---|3-*--|
Eb||-----|--------------6-|-----|
Colaboração e revisão:
  • Eduardo Lyvio
1.880 exibições
    • ½ Tom
    • A
    • Bb
    • B
    • C
    • Db
    • D
    • Eb
    • E
    • F
    • F#
    • G
    • Ab
  • Adicionar à lista

    0 comentários

    Mostrar mais comentários

    Conseguiu tocar?

    0 Tocaram 0 Ainda não

    Grave um vídeo tocando Power and Majesty (2000) e mande pra gente!

    00:00 / 00:00
    outros vídeos desta música
    repetir qualidade Automático
    Outros vídeos desta música
    00:00 / 00:00
    Automático

    Cifra Club Pro

    Aproveite o Cifra Club com benefícios exclusivos e sem anúncios
    Cifra Club Pro
    Aproveite o Cifra Club com benefícios exclusivos e sem anúncios
    OK