Cifra Club

Aprenda

Scarlet Rose

Edguy

Cifra: Principal (violão e guitarra)
Tom: F
Intro/Verse
   Am      F        C           G             Ending
E:---------3--1--0---------------------------|------------------?
B:-1--0--1--1--1--1-1--1--1>3<1-0---0--------|-1--0--1-3--------?
G:--2--2--2--2--2----0--0--------0-0-0-0-----|--2--2--2-2-------?
D:---2--2-------------0--0--------0---0------|---2--2----2------?
A:-------------------------------------------|------------------?
E:-------------------------------------------|------------------?


Verse 1:
The Moment when you held me tight
Won't come back anymore
And at the end of that night
You slammed the door

Verse 2:
My dream it died away
Just when I saw red
And nothing but a memory
Is left inside my head

Bridge:
Dm
Nothing is forever in life
        G
But a memory believe it's true
Dm
And when I gaze in the rain
        G
I'm crying just for you

Chorus:
C     G               Am
The Scarlet rose has died
Dm               G
Lost inside the night
Em                       Am
Left in my mind like a dream and full of pride
       F               G
The scarlet rose has died

Verse 3
Verse 4  (check the lyrics in your album)
Bridge
Chorus

Solo:
E---------------------------------------------------------------------------------------------------
H---------------------------10~----8~-----5-5~---3~-----3---1---0---------------0-1-3-0---------
G--2-4-5-7-9-10-12------------------------------------------------------2~---2~-------------------
D------------(hasdied...)--------------------------------------------------------------------------
A---------------------------------------------------------------------------------------------------
E---------------------------------------------------------------------------------------------------

E---------------------------------------------------------------------------------------------------
H----1-3-0-(This last 1-3-0 is played very fast, with feelin... sounds almostlike a spanish riff)--
G---------------------------------------------------------------------------------------------------
D---------------------------------------------------------------------------------------------------
A--------------------------------------------------------------------------------------------------
E---------------------------------------------------------------------------------------------------

Riff 2: 

E---------------------------------------------------------------------------------------------------
H---9-10-9-7-9~----14-14-14-14~12-12-12~10-10-10~9-9-9~7~------------------------------------------
G--------------------------------------------------------------------------------------------------- 
D---------------------------------------------------------------------------------------------------
A-------------------------------------------------------------------------------------------------- 
E---------------------------------------------------------------------------------------------------

E---------------------------------------------------------------------------------------------------
H---9-10-9-7-9~----10-10-10-10~12-12-12~14-14-14~15-15-15-17---------------------------------------
G--------------------------------------------------------------------------------------------------- 
D---------------------------------------------------------------------------------------------------
A---------------------------------------------------------------------------------------------------
E---------------------------------------------------------------------------------------------------

Solo:

Dm  Am

E---------------------------------------------------------------------------------------------------
H--1~---3-4-6~-4-3---------1~--3-4-6~-8-9~--8~-9~-8-6-4--------------------------------------
G---------------------3~---------------------------------------------------------------------------
D---------------------------------------------------------------------------------------------------
A---------------------------------------------------------------------------------------------------
E---------------------------------------------------------------------------------------------------

E---------------------------------------------------------------------------------------------------
H-13-13-13-13-11-------11-13-15-16----16-15-15-16-18-20-20-20-20~-18-16-15-13-11-10-8--------------
G---------------------------------------------------------------------------------------------------
D---------------------------------------------------------------------------------------------------
A--------------------------------------------------------------------------------------------------
E---------------------------------------------------------------------------------------------------
Composição de Tobias Sammet
Colaboração e revisão:
  • Cézar Gomes
18.824 exibições
    • ½ Tom
    • A
    • Bb
    • B
    • C
    • Db
    • D
    • Eb
    • E
    • F
    • F#
    • G
    • Ab
  • Adicionar à lista

    0 comentários

    Mostrar mais comentários

    Conseguiu tocar?

    1 Tocaram 0 Ainda não

    Grave um vídeo tocando Scarlet Rose e mande pra gente!

    00:00 / 00:00
    outros vídeos desta música
    repetir qualidade Automático
    Outros vídeos desta música
    00:00 / 00:00
    Automático

    Cifra Club Pro

    Aproveite o Cifra Club com benefícios exclusivos e sem anúncios
    Cifra Club Pro
    Aproveite o Cifra Club com benefícios exclusivos e sem anúncios
    OK