Cifra Club

Aprenda

Superheroes

Edguy

Cifra: Principal (violão e guitarra)
Tom: D
standard, drop d tuning. D A D G B E
Intro 0.00
E|---------------------------------------------------------------------------|
B|---------------------------------------------------------------------------|
G|---------------------------------------------------------------------------|
D|---------------------------------------------------------------------------|
A|---------------------------------------------------------------------------|
D|--3-3-5----3-3-6---5-3-5---------------------------------------------------|

Main riff 0.02
Guitar 1
E|---------------------------------------------------------------------------|
B|---------------------------------------------------------------------------|
G|-7--10--9--5-7---10--9--5----7--10--9--5-7---10--12--9---------------------|
D|---0---0--0-----0---0--0-------0---0--0-----0---0---0----------------------|
A|---------------------------------------------------------------------------|
D|---------------------------------------------------------------------------|
Guitar 2
E|----------------------------------------------------------------------------|
B|----------------------------------------------------------------------------|
G|----------------------------------------------------------------------------|
D|-0--------------------------3----------------5------------------------------|
A|-0--------------------------3----------------5------------------------------|
D|-0--------------------------3----------------5------------------------------|

Verse Pt1  0.09
Guitar 1
E|---------------------------------------------------------------------------|
B|---------------------------------------------------------------------------|
G|----------------BASS-------------------------------------------------------|
D|-----------------------------------BASS------------------------------------|
A|---------------------------------------------------------------------------|
D|----------------------------------------------------BASS-------------------|
Guitar 2
E|---------------------------------------------------------------------------|
B|---------------BASS--------------------------------------------------------|
G|---------------------------------------------------------------------------|
D|----------------------------BASS-------------------------------------------|
A|---------------------------------------------------------------------------|
D|---------------------------------------------BASS--------------------------|

Verse Pt2 0.23
Guitar 1
E|---------------------------------------------------------------------------|
B|---------------------------------------------------------------------------|
G|---------------------------------------------------------------------------|
D|--0-------3------5---------------0-------3------5--------------------------|
A|--0-x11---3-x6---5-x5------------0-x11---3-x6---5-x5-----------------------|
D|--0-------3------5---------------0-------3------5--------------------------|
Guitar 2
E|---------------------------------------------------------------------------|
B|---------------------------------------------------------------------------|
G|---------------------------------------------------------------------------|
D|--0-------3------5---------------0-------3------5--------------------------|
A|--0-x11---3-x6---5-x5------------0-x11---3-x6---5-x5-----------------------|
D|--0-------3------5---------------0-------3------5--------------------------|

Chorus 0.38
Guitar 1
E|---------------13--12-------------------------------------------------------|
B|--------3--------------13----------------------3---5-6-5-6-5-6--------------|
G|--------3--------------------------5-----------3---5-5-5-5-5-5--------------|
D|--0--0--3--------------------3--3--5-----0--0--3---5-5-5-5-5-5--------------|
A|--0--0--1--------------------3--3--3-----0--0--1---3-3-3-3-3-3--------------|
D|--0--0-----------------------3--3--------0--0-------------------------------|
Guitar 2
E|---------------------------------------------------------------------------|
B|--------3--------------------------------------3---5-----------------------|
G|--------3--------------------------5-----------3---5-----------------------|
D|--0--0--3--------------------3--3--5-----0--0--3---5-----------------------|
A|--0--0--1--------------------3--3--3-----0--0--1---3-----------------------|
D|--0--0-----------------------3--3--------0--0------------------------------|

Guitar 1
E|---------------13--12------------------------------------------------------|
B|--------3--------------13----------------------3---5-6-5-6-5-6-------------|
G|--------3--------------------------5-----------3---5-5-5-5-5-5-------------|
D|--0--0--3--------------------3--3--5-----0--0--3---5-5-5-5-5-5-------------|
A|--0--0--1--------------------3--3--3-----0--0--1---3-3-3-3-3-3-------------|
D|--0--0-----------------------3--3--------0--0------------------------------|
Guitar 2
E|----------------------------------------------------------------------------|
B|--------3--------------------------------------3---5------------------------|
G|--------3--------------------------5-----------3---5------------------------|
D|--0--0--3--------------------3--3--5-----0--0--3---5------------------------|
A|--0--0--1--------------------3--3--3-----0--0--1---3------------------------|
D|--0--0-----------------------3--3--------0--0------------3-3-5--3-3-6-5-3-5-|

Verse 2, Pt1 1.07
Guitar 1
E|---------------------------------------------------------------------------|
B|---------------------------------------------------------------------------|
G|-7--10--9--5-7---10--9--5----7--10--9--5-7---10--12--9---------------------|
D|---0---0--0-----0---0--0-------0---0--0-----0---0---0----------------------|
A|---------------------------------------------------------------------------|
D|---------------------------------------------------------------------------|
Guitar 2
E|---------------------------------------------------------------------------|
B|-------------------------------------------------------NOTHING-------------|
G|------------------NOTHING|--------------------------------------------------|
D|---------------------------------------------------------------------------|
A|--------------------------------------NOTHING------------------------------|
D|---------------------------------------------------------------------------|

Guitar 1
E|---------------------------------------------------------------------------|
B|---------------------------------------------------------------------------|
G|-7--10--9--5-7---10--9--5----7--10--9--5-7---------------------------------|
D|---0---0--0-----0---0--0-------0---0--0------------------------------------|
A|---------------------------------------------------------------------------|
D|---------------------------------------------------------------------------|
Guitar 2
E|---------------------------------------------------------------------------|
B|-------------------------------------------------------NOTHING-------------|
G|------------------NOTHING|--------------------------------------------------|
D|---------------------------------------------------------------------------|
A|--------------------------------------NOTHING------------------------------|
D|---------------------------------------------------------------------------|

Verse 2, Pt2 1.21
Guitar 1
E|---------------------------------------------------------------------------|
B|---------------------------------------------------------------------------|
G|-7--10--9--5-7---10--9--5----7--10--9--5-7---10--12--9---------------------|
D|---0---0--0-----0---0--0-------0---0--0-----0---0---0----------------------|
A|---------------------------------------------------------------------------|
D|---------------------------------------------------------------------------|
Guitar 2
E|----------------------------------------------------------------------------|
B|----------------------------------------------------------------------------|
G|----------------------------------------------------------------------------|
D|-0--------------------------3----------------5------------------------------|
A|-0--------------------------3----------------5------------------------------|
D|-0--------------------------3----------------5------------------------------|

Guitar 1
E|---------------------------------------------------------------------------|
B|---------------------------------------------------------------------------|
G|-7--10--9--5-7---10--9--5----7--10--9--5-7---10--12--9---------------------|
D|---0---0--0-----0---0--0-------0---0--0-----0---0---0----------------------|
A|---------------------------------------------------------------------------|
D|---------------------------------------------------------------------------|
Guitar 2
E|----------------------------------------------------------------------------|
B|----------------------------------------------------------------------------|
G|----------------------------------------------------------------------------|
D|-0--------------------------3----------------5------------------------------|
A|-0--------------------------3----------------5------------------------------|
D|-0--------------------------3----------------5------------------------------|

Chorus 2 1.36
Guitar 1
E|---------------13--12-------------------------------------------------------|
B|--------3--------------13----------------------3---5-6-5-6-5-6--------------|
G|--------3--------------------------5-----------3---5-5-5-5-5-5--------------|
D|--0--0--3--------------------3--3--5-----0--0--3---5-5-5-5-5-5--------------|
A|--0--0--1--------------------3--3--3-----0--0--1---3-3-3-3-3-3--------------|
D|--0--0-----------------------3--3--------0--0-------------------------------|
Guitar 2
E|---------------------------------------------------------------------------|
B|--------3--------------------------------------3---5-----------------------|
G|--------3--------------------------5-----------3---5-----------------------|
D|--0--0--3--------------------3--3--5-----0--0--3---5-----------------------|
A|--0--0--1--------------------3--3--3-----0--0--1---3-----------------------|
D|--0--0-----------------------3--3--------0--0------------------------------|

Guitar 1
E|---------------13--12------------------------------------------------------|
B|--------3--------------13----------------------3---5-6-5-6-5-6-------------|
G|--------3--------------------------5-----------3---5-5-5-5-5-5-------------|
D|--0--0--3--------------------3--3--5-----0--0--3---5-5-5-5-5-5-------------|
A|--0--0--1--------------------3--3--3-----0--0--1---3-3-3-3-3-3-------------|
D|--0--0-----------------------3--3--------0--0------------------------------|
Guitar 2
E|---------------------------------------------------------------------------|
B|--------3--------------------------------------3---5-----------------------|
G|--------3--------------------------5-----------3---5-----------------------|
D|--0--0--3--------------------3--3--5-----0--0--3---5-----------------------|
A|--0--0--1--------------------3--3--3-----0--0--1---3-----------------------|
D|--0--0-----------------------3--3--------0--0------------------------------|

Bridge 2.04 not too sure about this part, but it fits, there might be a key change but 
sounds different from the normal main riff
Guitar 1
E|---------------------------------------------------------------------------|
B|---------------------------------------------------------------------------|
G|-7--10--9--5-7---10--9--5----7--10--9--5-7----10--9---5--------------------|
D|---0---0--0-----0---0--0-------0---0--0-----0---0---0----------------------|
A|---------------------------------------------------------------------------|
D|---------------------------------------------------------------------------|
Guitar 2
E|---------------------------------------------------------------------------|
B|---------------------------------------------------------------------------|
G|---------------------------------------------------------------------------|
D|-0--------------------------3----------------5-----------------------------|
A|-0--------------------------3----------------5-----------------------------|
D|-0--------------------------3----------------5-----------------------------|

Guitar 1
E|---------------------------------------------------------------------------|
B|---------------------------------------------------------------------------|
G|-7--10--9--5-7---10--9--5----7--10--9--7--10--9--10--12--------------------|
D|---0---0--0-----0---0--0-------0---0--0--0---0--0---0----------------------|
A|---------------------------------------------------------------------------|
D|---------------------------------------------------------------------------|
Guitar 2
E|---------------------------------------------------------------------------|
B|---------------------------------------------------------------------------|
G|---------------------------------------------------------------------------|
D|-0--------------------------3----------------5-----------------------------|
A|-0--------------------------3----------------5-----------------------------|
D|-0--------------------------3----------------5-----------------------------|

Alternative Chorus 2.19
Guitar 1: no distortion lots of chorus sounds very good!
E|-1--------0---0----------1-------0--1--0--1--0--1--------------------------|
B|-2---3----1---1----------2---3---1--1--1--1--1--1--------------------------|
G|-3---3----2---0----------3---3---0-----0-----0-----------------------------|
D|-0---3----3---2----------0---3---2-----2-----2-----------------------------|
A|-----1----0---3--------------1---3-----3-----3-----------------------------|
D|---------------------------------------------------------------------------|

Chorus 3,  2.31
Guitar 1
E|---------------------------------------------------------------------------|
B|---------------------------------------------------------------------------|
G|---------------------------------------------------------------------------|
D|---------------------------------------------------------------------------|
A|---------------------------------------------------------------------------|
D|--3-3-5----3-3-6---5-3-5---------------------------------------------------|

Guitar 1
E|---------------13--12-------------------------------------------------------|
B|--------3--------------13----------------------3---5-6-5-6-5-6--------------|
G|--------3--------------------------5-----------3---5-5-5-5-5-5--------------|
D|--0--0--3--------------------3--3--5-----0--0--3---5-5-5-5-5-5--------------|
A|--0--0--1--------------------3--3--3-----0--0--1---3-3-3-3-3-3--------------|
D|--0--0-----------------------3--3--------0--0-------------------------------|
Guitar 2
E|---------------------------------------------------------------------------|
B|--------3--------------------------------------3---5-----------------------|
G|--------3--------------------------5-----------3---5-----------------------|
D|--0--0--3--------------------3--3--5-----0--0--3---5-----------------------|
A|--0--0--1--------------------3--3--3-----0--0--1---3-----------------------|
D|--0--0-----------------------3--3--------0--0------------------------------|

Guitar 1
E|---------------13--12------------------------------------------------------|
B|--------3--------------13----------------------3---5-6-5-6-5-6-------------|
G|--------3--------------------------5-----------3---5-5-5-5-5-5-------------|
D|--0--0--3--------------------3--3--5-----0--0--3---5-5-5-5-5-5-------------|
A|--0--0--1--------------------3--3--3-----0--0--1---3-3-3-3-3-3-------------|
D|--0--0-----------------------3--3--------0--0------------------------------|
Guitar 2
E|---------------------------------------------------------------------------|
B|--------3--------------------------------------3---5-----------------------|
G|--------3--------------------------5-----------3---5-----------------------|
D|--0--0--3--------------------3--3--5-----0--0--3---5-----------------------|
A|--0--0--1--------------------3--3--3-----0--0--1---3-----------------------|
D|--0--0-----------------------3--3--------0--0------------------------------|

Main Riff  3.02
Guitar 1
E|---------------------------------------------------------------------------|
B|---------------------------------------------------------------------------|
G|-7--10--9--5-7---10--9--5----7--10--9--5-7---10--12--9---------------------|
D|---0---0--0-----0---0--0-------0---0--0-----0---0---0----------------------|
A|---------------------------------------------------------------------------|
D|---------------------------------------------------------------------------|
Guitar 2
E|---------------------------------------------------------------------------|
B|---------------------------------------------------------------------------|
G|---------------------------------------------------------------------------|
D|-0--------------------------3----------------------------------------------|
A|-0--------------------------3----------------------------------------------|
D|-0--------------------------3-------------3--3---3-3--6-5------------------|

Guitar 1
E|---------------------------------------------------------------------------|
B|---------------------------------------------------------------------------|
G|-7--10--9--5-7---10--9--5----7--10--9--5-7---------------------------------|
D|---0---0--0-----0---0--0-------0---0--0------------------------------------|
A|---------------------------------------------------------------------------|
D|---------------------------------------------------------------------------|
Guitar 2
E|---------------------------------------------------------------------------|
B|---------------------------------------------------------------------------|
G|---------------------------------------------------------------------------|
D|-0--------------------------3----------------------------------------------|
A|-0--------------------------3----------------------------------------------|
D|-0--------------------------3----------------------------------------------|
Colaboração e revisão:
  • Taino Vieira
12.311 exibições
    • ½ Tom
    • A
    • Bb
    • B
    • C
    • Db
    • D
    • Eb
    • E
    • F
    • F#
    • G
    • Ab
  • Adicionar à lista

    0 comentários

    Mostrar mais comentários

    Conseguiu tocar?

    0 Tocaram 0 Ainda não

    Grave um vídeo tocando Superheroes e mande pra gente!

    00:00 / 00:00
    outros vídeos desta música
    repetir qualidade Automático
    Outros vídeos desta música
    00:00 / 00:00
    Automático

    Cifra Club Pro

    Aproveite o Cifra Club com benefícios exclusivos e sem anúncios
    Cifra Club Pro
    Aproveite o Cifra Club com benefícios exclusivos e sem anúncios
    OK