Cifra Club

Aprenda

All Sparks Solo

Editors

Cifra: Principal (violão e guitarra)
tom: A
Tabbed by:mayfly
Email:*

Tuning: standard 

chorus solo

e|---------------------------------------------------|
B|--14-14-14-14-14-14-14-12-12-10-10-9-9-------------|
G|---------------------------------------11----------|
D|----------------------------------------------x3---|
A|---------------------------------------------------|
E|---------------------------------------------------|

e|----------------------12-12-12-12-12-12-12---------|
B|-14-14-14-14-14-14-14------------------------------|
G|---------------------------------------------------|
D|---------------------------------------------------|
A|---------------------------------------------------|
E|---------------------------------------------------|
473 exibições
    • ½ Tom
    • A
    • Bb
    • B
    • C
    • Db
    • D
    • Eb
    • E
    • F
    • F#
    • G
    • Ab
  • Adicionar à lista

    0 comentários

    Ver todos os comentários

    Conseguiu tocar?

    0 Tocaram 0 Ainda não

    Grave um vídeo tocando All Sparks Solo e nos envie!

    00:00 / 00:00
    outros vídeos desta música
    repetir qualidade Automático
    Outros vídeos desta música
    00:00 / 00:00
    Automático

    Cifra Club Pro

    Aproveite o Cifra Club com benefícios exclusivos e sem anúncios
    Cifra Club Pro
    Aproveite o Cifra Club com benefícios exclusivos e sem anúncios
    OK