Cifra Club

Aprenda

All Sparks

Editors

Cifra: Principal (violão e guitarra)
tom: D
Chris Urbanowicks(Guitarra 1)


     E  E   E   E  E  E   E   E     E  E   E   E  E  E   E   E   
E||------------------------------|------------------------------|
B||------------------------------|------------------------------|
G||--------11--11--9--9--11--11--|--------11--11--9--9--11--11--|
D||------------------------------|------------------------------|
A||--9--9------------------------|--9--9------------------------|
E||------------------------------|------------------------------|


  E  E   E   E  E  E   E   E     E  E   E   E  E  E    E   E   
------------------------------|-------------------------------|
------------------------------|-------------------------------|
--------11--11--9--9--11--11--|--------11--11--9--9S--13--13--|
------------------------------|-------------------------------|
--9--9------------------------|--9--9-------------------------|
------------------------------|-------------------------------|

   E    E   E   E  E  E   E   E   
---------------------------------|
---------------------------------|
--13h--14--11---L--------13--13--|
----------------L----------------|
---------------------------------|
---------------------------------|

   E    E   E  E  E  E  E   E     E  E   E   E  E  E   E   E   
-------------------------------|------------------------------|
-------------------------------|------------------------------|
--13h--14--11--L--------9--11--|--------11--11--9--9--11--11--|
-------------------------------|------------------------------|
-------------------------------|--9--9------------------------|
-------------------------------|------------------------------|

  E  E   E   E  E  E   E   E     E  E   E   E  E  E   E   E   
------------------------------|------------------------------|
------------------------------|------------------------------|
--------11--11--9--9--11--11--|--------11--11--9--9--11--11--|
------------------------------|------------------------------|
--9--9------------------------|--9--9------------------------|
------------------------------|------------------------------|

  E  E   E   E  E  E   E   E     E  E   E   E  E  E   E   E   
------------------------------|------------------------------|
------------------------------|------------------------------|
--------11--11--9--9--11--11--|--------11--11--9--9--11--11--|
------------------------------|------------------------------|
--9--9------------------------|--9--9------------------------|
------------------------------|------------------------------|

  E  E   E   E  E  E    E   E   
-------------------------------|
-------------------------------|
--------11--11--9--9S--13--13--|
-------------------------------|
--9--9-------------------------|
-------------------------------|

   E    E   E   E  E  E   E   E   
---------------------------------|
---------------------------------|
--13h--14--11---L--------13--13--|
----------------L----------------|
---------------------------------|
---------------------------------|

   E    E   E  E  E  E  E   E     E  E   E   E  E  E   E   E   
-------------------------------|------------------------------|
-------------------------------|------------------------------|
--13h--14--11--L--------9--11--|--------11--11--9--9--11--11--|
-------------------------------|------------------------------|
-------------------------------|--9--9------------------------|
-------------------------------|------------------------------|

  E  E   E   E  E  E   E   E     E  E   E   E  E  E   E   E   
------------------------------|------------12--L---------12--|
------------------------------|--------14------------14------|
--------11--11--9--9--11--11--|------------------------------|
------------------------------|------------------------------|
--9--9------------------------|------------------------------|
------------------------------|------------------------------|

  E  E   E   E  E  E   E   E     E  E   E   E  E  E   E   E   
--L---------12--L---------12--|--L---------12--L---------12--|
--------14------------14------|--------14------------14------|
------------------------------|------------------------------|
------------------------------|------------------------------|
------------------------------|------------------------------|
------------------------------|------------------------------|

  E  E   E   E  E  E   E   E      E    E   E   E  E  E   E   E   
--L---------12--L-------------|---------------------------------|
--------14--------------------|---------------------------------|
----------------------13--13--|--13h--14--11---L--------13--13--|
------------------------------|---------------------------------|
------------------------------|---------------------------------|
------------------------------|---------------------------------|

   E    E   E  E  E  E  E   E     E  E   E   E  E  E   E   E   
-------------------------------|------------12--L---------12--|
-------------------------------|--------14------------14------|
--13h--14--11--L--------9--11--|------------------------------|
-------------------------------|------------------------------|
-------------------------------|------------------------------|
-------------------------------|------------------------------|

  E  E   E   E  E  E   E   E     E  E   E   E  E  E   E   E   
--L---------12--L---------12--|--L---------12--L---------12--|
--------14------------14------|--------14------------14------|
------------------------------|------------------------------|
------------------------------|------------------------------|
------------------------------|------------------------------|
------------------------------|------------------------------|

  E  E   E   E  E  E   E   E     E  E   E   E  E  E   E   E   
--L---------12--L---------12--|--L---------12--L---------12--|
--------14------------14------|--------14------------14------|
------------------------------|------------------------------|
------------------------------|------------------------------|
------------------------------|------------------------------|
------------------------------|------------------------------|

  E  E   E   E  E  E   E   E      E    E   E   E  E  E   E   E   
--L---------12--L-------------|---------------------------------|
--------14--------------------|---------------------------------|
----------------------13--13--|--13h--14--11---L--------13--13--|
------------------------------|---------------------------------|
------------------------------|---------------------------------|
------------------------------|---------------------------------|

   E    E   E  E  E  E  E   E     E  E   E   E  E  E   E   E   
-------------------------------|------------12--L---------12--|
-------------------------------|--------14------------14------|
--13h--14--11--L--------9--11--|------------------------------|
-------------------------------|------------------------------|
-------------------------------|------------------------------|
-------------------------------|------------------------------|

  E  E   E   E  E  E  E  E   
--L---------12--L-----------|
--------14------------------|
----------------------------|
----------------------------|
----------------------------|
----------------------------|

   Chorus                             
   E      E   E   E   E   E   E   E   
--12-----12--12--12--12--12--12--12--|
--14-----14--14--14--14--14--14--14--|
-------------------------------------|
-------------------------------------|
-------------------------------------|
-------------------------------------|

   E   E   E   E  E  E  E  E   
--10--10---9---9--7--7--5--5--|
--12--12--10--10--9--9--7--7--|
------------------------------|
------------------------------|
------------------------------|
------------------------------|

   Chorus                             
   E      E   E   E   E   E   E   E   
--12-----12--12--12--12--12--12--12--|
--14-----14--14--14--14--14--14--14--|
-------------------------------------|
-------------------------------------|
-------------------------------------|
-------------------------------------|

   E   E   E   E  E  E  E  E   
--10--10---9---9--7--7--5--5--|
--12--12--10--10--9--9--7--7--|
------------------------------|
------------------------------|
------------------------------|
------------------------------|

   Chorus                             
   E      E   E   E   E   E   E   E   
--12-----12--12--12--12--12--12--12--|
--14-----14--14--14--14--14--14--14--|
-------------------------------------|
-------------------------------------|
-------------------------------------|
-------------------------------------|

   E   E   E   E  E  E  E  E   
--10--10---9---9--7--7--5--5--|
--12--12--10--10--9--9--7--7--|
------------------------------|
------------------------------|
------------------------------|
------------------------------|

   Chorus                             
   E      E   E   E   E   E   E   E   
--12-----12--12--12--12--12--12--12--|
--14-----14--14--14--14--14--14--14--|
-------------------------------------|
-------------------------------------|
-------------------------------------|
-------------------------------------|

   E   E   E   E  E  E  E  E     E  E   E   E  E  E   E   E   
--10--10---9---9--7--7--5--5--|------------------------------|
--12--12--10--10--9--9--7--7--|------------------------------|
------------------------------|--------11--11--9--9--11--11--|
------------------------------|------------------------------|
------------------------------|--9--9------------------------|
------------------------------|------------------------------|

  E  E   E   E  E  E   E   E     E  E   E   E  E  E   E   E   
------------------------------|------------------------------|
------------------------------|------------------------------|
--------11--11--9--9--11--11--|--------11--11--9--9--11--11--|
------------------------------|------------------------------|
--9--9------------------------|--9--9------------------------|
------------------------------|------------------------------|

  E  E   E   E  E  E    E   E   
-------------------------------|
-------------------------------|
--------11--11--9--9S--13--13--|
-------------------------------|
--9--9-------------------------|
-------------------------------|

   E    E   E   E  E  E   E   E   
---------------------------------|
---------------------------------|
--13h--14--11---L--------13--13--|
---------------------------------|
---------------------------------|
---------------------------------|

   E    E   E  E  E  E  E   E     E  E   E   E  E  E   E   E   
-------------------------------|------------------------------|
-------------------------------|------------------------------|
--13h--14--11--L--------9--11--|--------11--11--9--9--11--11--|
-------------------------------|------------------------------|
-------------------------------|--9--9------------------------|
-------------------------------|------------------------------|

  E  E   E   E  E  E   E   E     E  E   E   E  E  E   E   E   
------------------------------|------------------------------|
------------------------------|------------------------------|
--------11--11--9--9--11--11--|--------11--11--9--9--11--11--|
------------------------------|------------------------------|
--9--9------------------------|--9--9------------------------|
------------------------------|------------------------------|

  E  E   E   E  E  E   E   E     E  E   E   E  E  E   E   E   
------------------------------|------------------------------|
------------------------------|------------------------------|
--------11--11--9--9--11--11--|--------11--11--9--9--11--11--|
------------------------------|------------------------------|
--9--9------------------------|--9--9------------------------|
------------------------------|------------------------------|

  E  E   E   E  E  E    E   E   
-------------------------------|
-------------------------------|
--------11--11--9--9S--13--13--|
-------------------------------|
--9--9-------------------------|
-------------------------------|

   E    E   E   E  E  E   E   E   
---------------------------------|
---------------------------------|
--13h--14--11---L--------13--13--|
---------------------------------|
---------------------------------|
---------------------------------|

   E    E   E  E  E  E  E   E     E  E   E   E  E  E   E   E   
-------------------------------|------------------------------|
-------------------------------|------------------------------|
--13h--14--11--L--------9--11--|--------11--11--9--9--11--11--|
-------------------------------|------------------------------|
-------------------------------|--9--9------------------------|
-------------------------------|------------------------------|

  E  E   E   E  E  E   E   E     E  E   E   E  E  E   E   E   
------------------------------|------------12--L---------12--|
------------------------------|--------14------------14------|
--------11--11--9--9--11--11--|------------------------------|
------------------------------|------------------------------|
--9--9------------------------|------------------------------|
------------------------------|------------------------------|

  E  E   E   E  E  E   E   E     E  E   E   E  E  E   E   E   
--L---------12--L---------12--|--L---------12--L---------12--|
--------14------------14------|--------14------------14------|
------------------------------|------------------------------|
------------------------------|------------------------------|
------------------------------|------------------------------|
------------------------------|------------------------------|

  E  E   E   E  E  E   E   E      E    E   E   E  E  E   E   E   
--L---------12--L-------------|---------------------------------|
--------14--------------------|---------------------------------|
----------------------13--13--|--13h--14--11---L--------13--13--|
------------------------------|---------------------------------|
------------------------------|---------------------------------|
------------------------------|---------------------------------|

   E    E   E  E  E  E  E   E     E  E   E   E  E  E   E   E   
-------------------------------|------------12--L---------12--|
-------------------------------|--------14------------14------|
--13h--14--11--L--------9--11--|------------------------------|
-------------------------------|------------------------------|
-------------------------------|------------------------------|
-------------------------------|------------------------------|

  E  E   E   E  E  E   E   E   
--L---------12--L---------12--|
--------14------------14------|
------------------------------|
------------------------------|
------------------------------|
------------------------------|

   Chorus                             
   E      E   E   E   E   E   E   E   
--12-----12--12--12--12--12--12--12--|
--14-----14--14--14--14--14--14--14--|
-------------------------------------|
-------------------------------------|
-------------------------------------|
-------------------------------------|

   E   E   E   E  E  E  E  E   
--10--10---9---9--7--7--5--5--|
--12--12--10--10--9--9--7--7--|
------------------------------|
------------------------------|
------------------------------|
------------------------------|

   Chorus                             
   E      E   E   E   E   E   E   E   
--12-----12--12--12--12--12--12--12--|
--14-----14--14--14--14--14--14--14--|
-------------------------------------|
-------------------------------------|
-------------------------------------|
-------------------------------------|

   E   E   E   E  E  E  E  E   
--10--10---9---9--7--7--5--5--|
--12--12--10--10--9--9--7--7--|
------------------------------|
------------------------------|
------------------------------|
------------------------------|

   Chorus                             
   E      E   E   E   E   E   E   E   
--12-----12--12--12--12--12--12--12--|
--14-----14--14--14--14--14--14--14--|
-------------------------------------|
-------------------------------------|
-------------------------------------|
-------------------------------------|

   E   E   E   E  E  E  E  E   
--10--10---9---9--7--7--5--5--|
--12--12--10--10--9--9--7--7--|
------------------------------|
------------------------------|
------------------------------|
------------------------------|

   Chorus                             
   E      E   E   E   E   E   E   E   
--12-----12--12--12--12--12--12--12--|
--14-----14--14--14--14--14--14--14--|
-------------------------------------|
-------------------------------------|
-------------------------------------|
-------------------------------------|

   E   E   E   E  E  E  E  E                           
--10--10---9---9--7--7--5--5--|-----|-----|-----|-----|
--12--12--10--10--9--9--7--7--|-----|-----|-----|-----|
------------------------------|-----|-----|-----|-----|
------------------------------|-----|-----|-----|-----|
------------------------------|-----|-----|-----|-----|
------------------------------|-----|-----|-----|-----|

  E  E   E   E  E  E   E   E     E  E   E   E  E  E   E   E   
------------------------------|------------------------------|
------------------------------|------------------------------|
--------11--11--9--9--11--11--|--------11--11--9--9--11--11--|
------------------------------|------------------------------|
--9--9------------------------|--9--9------------------------|
------------------------------|------------------------------|

  E  E   E   E  E  E   E   E     E  E   E   E  E  E    E   E   
------------------------------|-------------------------------|
------------------------------|-------------------------------|
--------11--11--9--9--11--11--|--------11--11--9--9S--13--13--|
------------------------------|-------------------------------|
--9--9------------------------|--9--9-------------------------|
------------------------------|-------------------------------|

   E    E   E   E  E  E   E   E   
---------------------------------|
---------------------------------|
--13h--14--11---L--------13--13--|
---------------------------------|
---------------------------------|
---------------------------------|

   E    E   E  E  E  E  E   E     E  E   E   E  E  E   E   E   
-------------------------------|------------------------------|
-------------------------------|------------------------------|
--13h--14--11--L--------9--11--|--------11--11--9--9--11--11--|
-------------------------------|------------------------------|
-------------------------------|--9--9------------------------|
-------------------------------|------------------------------|

  E  E   E   E  E  E   E   E     E  E   E   E  E  E   E   E   
------------------------------|------------------------------|
------------------------------|------------------------------|
--------11--11--9--9--11--11--|--------11--11--9--9--11--11--|
------------------------------|------------------------------|
--9--9------------------------|--9--9------------------------|
------------------------------|------------------------------|

  E  E   E   E  E  E   E   E     E  E   E   E  E  E   E   E   
------------------------------|------------------------------|
------------------------------|------------------------------|
--------11--11--9--9--11--11--|--------11--11--9--9--11--11--|
------------------------------|------------------------------|
--9--9------------------------|--9--9------------------------|
------------------------------|------------------------------|

  E  E   E   E  E  E    E   E   
-------------------------------|
-------------------------------|
--------11--11--9--9S--13--13--|
-------------------------------|
--9--9-------------------------|
-------------------------------|

   E    E   E   E  E  E   E   E   
---------------------------------|
---------------------------------|
--13h--14--11---L--------13--13--|
---------------------------------|
---------------------------------|
---------------------------------|

   E    E   E  E  E  E  E   E     E  E   E   E  E  E   E   E   
-------------------------------|------------------------------|
-------------------------------|------------------------------|
--13h--14--11--L--------9--11--|--------11--11--9--9--11--11--|
-------------------------------|------------------------------|
-------------------------------|--9--9------------------------|
-------------------------------|------------------------------|

  E  E   E   E  E  E   E   E   
------------------------------|
------------------------------|
--------11--11--9--9--11--11--|
------------------------------|
--9--9------------------------|
------------------------------|

   Chorus                             
   E      E   E   E   E   E   E   E   
--12-----12--12--12--12--12--12--12--|
--14-----14--14--14--14--14--14--14--|
-------------------------------------|
-------------------------------------|
-------------------------------------|
-------------------------------------|

   E   E   E   E  E  E  E  E   
--10--10---9---9--7--7--5--5--|
--12--12--10--10--9--9--7--7--|
------------------------------|
------------------------------|
------------------------------|
------------------------------|

   Chorus                             
   E      E   E   E   E   E   E   E   
--12-----12--12--12--12--12--12--12--|
--14-----14--14--14--14--14--14--14--|
-------------------------------------|
-------------------------------------|
-------------------------------------|
-------------------------------------|

   E   E   E   E  E  E  E  E   
--10--10---9---9--7--7--5--5--|
--12--12--10--10--9--9--7--7--|
------------------------------|
------------------------------|
------------------------------|
------------------------------|

   Chorus                             
   E      E   E   E   E   E   E   E   
--12-----12--12--12--12--12--12--12--|
--14-----14--14--14--14--14--14--14--|
-------------------------------------|
-------------------------------------|
-------------------------------------|
-------------------------------------|

   E   E   E   E  E  E  E  E   
--10--10---9---9--7--7--5--5--|
--12--12--10--10--9--9--7--7--|
------------------------------|
------------------------------|
------------------------------|
------------------------------|

   Chorus                             
   E      E   E   E   E   E   E   E   
--12-----12--12--12--12--12--12--12--|
--14-----14--14--14--14--14--14--14--|
-------------------------------------|
-------------------------------------|
-------------------------------------|
-------------------------------------|

   E   E   E   E  E  E  E  E   
--10--10---9---9--7--7--5--5--|
--12--12--10--10--9--9--7--7--|
------------------------------|
------------------------------|
------------------------------|
------------------------------|

   Chorus                             
   E      E   E   E   E   E   E   E   
--12-----12--12--12--12--12--12--12--|
--14-----14--14--14--14--14--14--14--|
-------------------------------------|
-------------------------------------|
-------------------------------------|
-------------------------------------|

   E   E   E   E  E  E  E  E   
--10--10---9---9--7--7--5--5--|
--12--12--10--10--9--9--7--7--|
------------------------------|
------------------------------|
------------------------------|
------------------------------|

   Chorus                             
   E      E   E   E   E   E   E   E   
--12-----12--12--12--12--12--12--12--|
--14-----14--14--14--14--14--14--14--|
-------------------------------------|
-------------------------------------|
-------------------------------------|
-------------------------------------|

   E   E   E   E  E  E  E  E   
--10--10---9---9--7--7--5--5--|
--12--12--10--10--9--9--7--7--|
------------------------------|
------------------------------|
------------------------------|
------------------------------|

   Chorus                             
   E      E   E   E   E   E   E   E   
--12-----12--12--12--12--12--12--12--|
--14-----14--14--14--14--14--14--14--|
-------------------------------------|
-------------------------------------|
-------------------------------------|
-------------------------------------|

   E   E   E   E  E  E  E  E   
--10--10---9---9--7--7--5--5--|
--12--12--10--10--9--9--7--7--|
------------------------------|
------------------------------|
------------------------------|
------------------------------|

   Chorus                             
   E      E   E   E   E   E   E   E   
--12-----12--12--12--12--12--12--12--|
--14-----14--14--14--14--14--14--14--|
-------------------------------------|
-------------------------------------|
-------------------------------------|
-------------------------------------|

   E   E   E   E  E  E  E  E     Q     Q     Q    Q              
--10--10---9---9--7--7--5--5--|-------14-----L---------|-------||
--12--12--10--10--9--9--7--7--|-------14-----L---------|-------||
------------------------------|------------------------|-------||
------------------------------|------------------------|-------||
------------------------------|------------------------|-------||
------------------------------|------------------------|-------||


                                                          Editors
Tom Smith(Guitarra 2)


      E   E   E   E   E   E   E   E   
E||----------------------------------|
B||----------------------------------|
G||----------------------------------|
D||--11--11--11--11--11--11--11--11--|
A||---9---9---9---9---9---9---9---9--|
E||----------------------------------|


   E   E   E   E   E   E   E   E   
----------------------------------|
----------------------------------|
----------------------------------|
--11--11--11--11--11--11--11--11--|
---9---9---9---9---9---9---9---9--|
----------------------------------|

   E   E   E   E   E   E   E   E   
----------------------------------|
----------------------------------|
----------------------------------|
--11--11--11--11--11--11--11--11--|
---9---9---9---9---9---9---9---9--|
----------------------------------|

   E   E   E   E   E   E   E   E     E  E  E  E  E  E  E  E   
----------------------------------|--------------------------|
----------------------------------|--------------------------|
----------------------------------|--------------------------|
--11--11--11--11--11--11--11--11--|--9--9--9--9--9--9--9--9--|
---9---9---9---9---9---9---9---9--|--7--7--7--7--7--7--7--7--|
----------------------------------|--------------------------|

  E  E  E  E  E  E  E  E      E   E   E   E   E   E   E   E   
--------------------------|----------------------------------|
--------------------------|----------------------------------|
--------------------------|----------------------------------|
--9--9--9--9--9--9--9--9--|--11--11--11--11--11--11--11--11--|
--7--7--7--7--7--7--7--7--|---9---9---9---9---9---9---9---9--|
--------------------------|----------------------------------|

   E   E   E   E   E   E   E   E   
----------------------------------|
----------------------------------|
----------------------------------|
--11--11--11--11--11--11--11--11--|
---9---9---9---9---9---9---9---9--|
----------------------------------|

   E   E   E   E   E   E   E   E   
----------------------------------|
----------------------------------|
----------------------------------|
--11--11--11--11--11--11--11--11--|
---9---9---9---9---9---9---9---9--|
----------------------------------|

   E   E   E   E   E   E   E   E   
----------------------------------|
----------------------------------|
----------------------------------|
--11--11--11--11--11--11--11--11--|
---9---9---9---9---9---9---9---9--|
----------------------------------|

   E   E   E   E   E   E   E   E   
----------------------------------|
----------------------------------|
----------------------------------|
--11--11--11--11--11--11--11--11--|
---9---9---9---9---9---9---9---9--|
----------------------------------|

   E   E   E   E   E   E   E   E     E  E  E  E  E  E  E  E   
----------------------------------|--------------------------|
----------------------------------|--------------------------|
----------------------------------|--------------------------|
--11--11--11--11--11--11--11--11--|--9--9--9--9--9--9--9--9--|
---9---9---9---9---9---9---9---9--|--7--7--7--7--7--7--7--7--|
----------------------------------|--------------------------|

  E  E  E  E  E  E  E  E      E   E   E   E   E   E   E   E   
--------------------------|----------------------------------|
--------------------------|----------------------------------|
--------------------------|----------------------------------|
--9--9--9--9--9--9--9--9--|--11--11--11--11--11--11--11--11--|
--7--7--7--7--7--7--7--7--|---9---9---9---9---9---9---9---9--|
--------------------------|----------------------------------|

   E   E   E   E   E   E   E   E   
----------------------------------|
----------------------------------|
----------------------------------|
--11--11--11--11--11--11--11--11--|
---9---9---9---9---9---9---9---9--|
----------------------------------|


   E   E   E   E   E   E   E   E   
[tab#inic
Composição de Chris Urbanowicz / Ed Lay / Russell Leetch / Tom Smith
Colaboração e revisão:
  • Danilo Dutra
1.533 exibições
    • ½ Tom
    • A
    • Bb
    • B
    • C
    • Db
    • D
    • Eb
    • E
    • F
    • F#
    • G
    • Ab
  • Adicionar à lista

    0 comentários

    Ver todos os comentários

    Conseguiu tocar?

    0 Tocaram 0 Ainda não

    Grave um vídeo tocando All Sparks e nos envie!

    00:00 / 00:00
    outros vídeos desta música
    repetir qualidade Automático
    Outros vídeos desta música
    00:00 / 00:00
    Automático

    Cifra Club Pro

    Aproveite o Cifra Club com benefícios exclusivos e sem anúncios
    Cifra Club Pro
    Aproveite o Cifra Club com benefícios exclusivos e sem anúncios
    OK