Cifra Club

Aprenda

An End Has a Start

Editors

Cifra: Principal (violão e guitarra)
tom: A (forma dos acordes no tom de G) Capotraste na 2ª casa
Chris Urbanowicz(Guitarra 1)

      TP                                                        
      W                   W                   W                 
E||--------------------|-------------------|-------------------|
B||--------------------|-------------------|-------------------|
G||--11----------------|--L----------------|--L----------------|
D||--------------------|-------------------|-------------------|
A||--------------------|-------------------|-------------------|
E||--------------------|-------------------|-------------------|


   TP                                                 
   W                    E   E   E   E   E   E  E  E   
---L----------------|--------------------------------|
--------------------|--------------------------------|
--11----------------|--11--11--11--------------9--9--|
--------------------|--------------11--11--11--------|
--------------------|--------------------------------|
--------------------|--------------------------------|

  E  E  E  E  E  E  E  E      E   E   E  E  E  E  E  E   
--------------------------|-----------------------------|
--------------------------|-----------------------9--9--|
--9-----------------------|--11--11--11--9--9--9--------|
-----9--9--9--9--9--9--9--|-----------------------------|
--------------------------|-----------------------------|
--------------------------|-----------------------------|

  E   E  E  E  E  E  E  E      E   E   E   E   E   E  E  E   
---------------------------|--------------------------------|
--9--10--------------------|--------------------------------|
---------9--9--9--9--9--9--|--11--11--11--------------9--9--|
---------------------------|--------------11--11--11--------|
---------------------------|--------------------------------|
---------------------------|--------------------------------|

  E  E  E  E  E  E  E  E      E   E   E  E  E  E  E  E   
--------------------------|-----------------------------|
--------------------------|-----------------------9--9--|
--9-----------------------|--11--11--11--9--9--9--------|
-----9--9--9--9--9--9--9--|-----------------------------|
--------------------------|-----------------------------|
--------------------------|-----------------------------|

  E   E  E  E  E  E  E  E                                       
---------------------------|-----|-----|-----|-----|-----|-----|
--9--10--------------------|-----|-----|-----|-----|-----|-----|
---------9--9--9--9--9--9--|-----|-----|-----|-----|-----|-----|
---------------------------|-----|-----|-----|-----|-----|-----|
---------------------------|-----|-----|-----|-----|-----|-----|
---------------------------|-----|-----|-----|-----|-----|-----|

               E   E   E   E   E   E   E   E   
-----|-----|--17--17--17--17--17--17--17--17--|
-----|-----|----------------------------------|
-----|-----|----------------------------------|
-----|-----|----------------------------------|
-----|-----|----------------------------------|
-----|-----|----------------------------------|

   E   E   E   E   E   E   E   E   
--16--16--16--16--16--16--16--16--|
----------------------------------|
----------------------------------|
----------------------------------|
----------------------------------|
----------------------------------|

   E   E   E   E   E   E   E   E   
--17--17--17--17--17--17--17--17--|
----------------------------------|
----------------------------------|
----------------------------------|
----------------------------------|
----------------------------------|

   E   E   E   E   E   E   E   E   
--14--14--14--14--14--14--14--14--|
----------------------------------|
----------------------------------|
----------------------------------|
----------------------------------|
----------------------------------|

   E   E   E   E   E   E   E   E   
--17--17--17--17--17--17--17--17--|
----------------------------------|
----------------------------------|
----------------------------------|
----------------------------------|
----------------------------------|

   E   E   E   E   E   E   E   E   
--16--16--16--16--16--16--16--16--|
----------------------------------|
----------------------------------|
----------------------------------|
----------------------------------|
----------------------------------|

   E   E   E   E   E   E   E   E   
--17--17--17--17--17--17--17--17--|
----------------------------------|
----------------------------------|
----------------------------------|
----------------------------------|
----------------------------------|

   E   E   E   E   E   E   E   E   
--14--14--14--14--14--14--14--14--|
----------------------------------|
----------------------------------|
----------------------------------|
----------------------------------|
----------------------------------|

   E   E   E   E   E   E   E   E   
--16--16--16--16--16--16--16--16--|
----------------------------------|
----------------------------------|
----------------------------------|
----------------------------------|
----------------------------------|

   E   E   E   E   E   E   E   E     E  E  E  E  E  E  E  E   
--17--17--17--17--17--17--17--17--|--------------------------|
----------------------------------|--2--2--2--2--2--2--2--2--|
----------------------------------|--------------------------|
----------------------------------|--------------------------|
----------------------------------|--------------------------|
----------------------------------|--------------------------|

  E  E  E  E  E  E  E  E     E  E  E  E  E  E  E  E   
--------------------------|--------------------------|
--2--2--2--2--5--5--5--5--|--9--9--9--9--9--9--9--9--|
--------------------------|--------------------------|
--------------------------|--------------------------|
--------------------------|--------------------------|
--------------------------|--------------------------|

  E  E  E  E  E  E  E  E      E   E   E   E   E   E   E   E   
--------------------------|--16--16--16--16--16--16--16--16--|
--9--9--9--9--9--9--9--9--|----------------------------------|
--------------------------|----------------------------------|
--------------------------|----------------------------------|
--------------------------|----------------------------------|
--------------------------|----------------------------------|

   E   E   E   E   E   E   E   E     E  E  E  E  E  E  E  E   
--12--12--12--12--14--14--14--14--|--7--7--7--7--7--7--7--7--|
----------------------------------|--------------------------|
----------------------------------|--------------------------|
----------------------------------|--------------------------|
----------------------------------|--------------------------|
----------------------------------|--------------------------|

  E  E  E  E  E  E  E  E      E   E   E   E   E   E  E  E   
--7--7--7--7--7--7--7--7--|--------------------------------|
--------------------------|--------------------------------|
--------------------------|--11--11--11--------------9--9--|
--------------------------|--------------11--11--11--------|
--------------------------|--------------------------------|
--------------------------|--------------------------------|

  E  E  E  E  E  E  E  E      E   E   E  E  E  E  E  E   
--------------------------|-----------------------------|
--------------------------|-----------------------9--9--|
--9-----------------------|--11--11--11--9--9--9--------|
-----9--9--9--9--9--9--9--|-----------------------------|
--------------------------|-----------------------------|
--------------------------|-----------------------------|

  E   E  E  E  E  E  E  E      E   E   E   E   E   E  E  E   
---------------------------|--------------------------------|
--9--10--------------------|--------------------------------|
---------9--9--9--9--9--9--|--11--11--11--------------9--9--|
---------------------------|--------------11--11--11--------|
---------------------------|--------------------------------|
---------------------------|--------------------------------|

  E  E  E  E  E  E  E  E      E   E   E  E  E  E  E  E   
--------------------------|-----------------------------|
--------------------------|-----------------------9--9--|
--9-----------------------|--11--11--11--9--9--9--------|
-----9--9--9--9--9--9--9--|-----------------------------|
--------------------------|-----------------------------|
--------------------------|-----------------------------|

  E   E  E  E  E  E  E  E                                       
---------------------------|-----|-----|-----|-----|-----|-----|
--9--10--------------------|-----|-----|-----|-----|-----|-----|
---------9--9--9--9--9--9--|-----|-----|-----|-----|-----|-----|
---------------------------|-----|-----|-----|-----|-----|-----|
---------------------------|-----|-----|-----|-----|-----|-----|
---------------------------|-----|-----|-----|-----|-----|-----|

               E   E   E   E   E   E   E   E   
-----|-----|--17--17--17--17--17--17--17--17--|
-----|-----|----------------------------------|
-----|-----|----------------------------------|
-----|-----|----------------------------------|
-----|-----|----------------------------------|
-----|-----|----------------------------------|

   E   E   E   E   E   E   E   E   
--16--16--16--16--16--16--16--16--|
----------------------------------|
----------------------------------|
----------------------------------|
----------------------------------|
----------------------------------|

   E   E   E   E   E   E   E   E   
--17--17--17--17--17--17--17--17--|
----------------------------------|
----------------------------------|
----------------------------------|
----------------------------------|
----------------------------------|

   E   E   E   E   E   E   E   E   
--14--14--14--14--14--14--14--14--|
----------------------------------|
----------------------------------|
----------------------------------|
----------------------------------|
----------------------------------|

   E   E   E   E   E   E   E   E   
--17--17--17--17--17--17--17--17--|
----------------------------------|
----------------------------------|
----------------------------------|
----------------------------------|
----------------------------------|

   E   E   E   E   E   E   E   E   
--16--16--16--16--16--16--16--16--|
----------------------------------|
----------------------------------|
----------------------------------|
----------------------------------|
----------------------------------|

   E   E   E   E   E   E   E   E   
--17--17--17--17--17--17--17--17--|
----------------------------------|
----------------------------------|
----------------------------------|
----------------------------------|
----------------------------------|

   E   E   E   E   E   E   E   E   
--14--14--14--14--14--14--14--14--|
----------------------------------|
----------------------------------|
----------------------------------|
----------------------------------|
----------------------------------|

   E   E   E   E   E   E   E   E   
--16--16--16--16--16--16--16--16--|
----------------------------------|
----------------------------------|
----------------------------------|
----------------------------------|
----------------------------------|

   E   E   E   E   E   E   E   E     E  E  E  E  E  E  E  E   
--17--17--17--17--17--17--17--17--|--------------------------|
----------------------------------|--2--2--2--2--2--2--2--2--|
----------------------------------|--------------------------|
----------------------------------|--------------------------|
----------------------------------|--------------------------|
----------------------------------|--------------------------|

  E  E  E  E  E  E  E  E     E  E  E  E  E  E  E  E   
--------------------------|--------------------------|
--2--2--2--2--5--5--5--5--|--9--9--9--9--9--9--9--9--|
--------------------------|--------------------------|
--------------------------|--------------------------|
--------------------------|--------------------------|
--------------------------|--------------------------|

  E  E  E  E  E  E  E  E      E   E   E   E   E   E   E   E   
--------------------------|--16--16--16--16--16--16--16--16--|
--9--9--9--9--9--9--9--9--|----------------------------------|
--------------------------|----------------------------------|
--------------------------|----------------------------------|
--------------------------|----------------------------------|
--------------------------|----------------------------------|

   E   E   E   E   E   E   E   E     E  E  E  E  E  E  E  E   
--12--12--12--12--14--14--14--14--|--7--7--7--7--7--7--7--7--|
----------------------------------|--------------------------|
----------------------------------|--------------------------|
----------------------------------|--------------------------|
----------------------------------|--------------------------|
----------------------------------|--------------------------|

  E  E  E  E  E  E  E  E      E   E   E   E   E   E   E   E   
--7--7--7--7--7--7--7--7--|--21--21--21--21--21--21--21--21--|
--------------------------|----------------------------------|
--------------------------|----------------------------------|
--------------------------|----------------------------------|
--------------------------|----------------------------------|
--------------------------|----------------------------------|

   E   E   E   E   E   E   E   E   
--19--19--19--19--21--21--21--21--|
----------------------------------|
----------------------------------|
----------------------------------|
----------------------------------|
----------------------------------|

   E   E   E   E   E   E   E   E   
--16--16--16--16--16--16--16--16--|
----------------------------------|
----------------------------------|
----------------------------------|
----------------------------------|
----------------------------------|

   E   E   E   E   E   E   E   E   
--16--16--16--16--16--16--16--16--|
----------------------------------|
----------------------------------|
----------------------------------|
----------------------------------|
----------------------------------|

   E   E   E   E   E   E   E   E   
--16--16--16--16--16--16--16--16--|
----------------------------------|
----------------------------------|
----------------------------------|
----------------------------------|
----------------------------------|

   E   E   E   E   E   E   E   E     E  E  E  E  E  E  E  E   
--12--12--12--12--14--14--14--14--|--7--7--7--7--7--7--7--7--|
----------------------------------|--------------------------|
----------------------------------|--------------------------|
----------------------------------|--------------------------|
----------------------------------|--------------------------|
----------------------------------|--------------------------|

  E  E  E  E  E  E  E  E     E  E  E  E  E  E  E  E   
--7--7--7--7--7--7--7--7--|--------------------------|
--------------------------|--------------------------|
--------------------------|--------------------------|
--------------------------|--4--4--4--4--6--6--6--6--|
--------------------------|--------------------------|
--------------------------|--------------------------|

  E  E  E  E  E  E  E  E     E  E  E  E  E  E  E  E   
--------------------------|--------------------------|
--------------------------|--------------------------|
--------------6--6--6--6--|--4--4--4--4--4--4--4--4--|
--7--7--7--7--------------|--------------------------|
--------------------------|--------------------------|
--------------------------|--------------------------|

  E  E  E  E  E  E  E  E     E  E  E  E  E  E  E  E   
--------------------------|--------------------------|
--------------------------|--------------------------|
--------------9--9--9--9--|--------------------------|
--6--6--6--6--------------|--4--4--4--4--6--6--6--6--|
--------------------------|--------------------------|
--------------------------|--------------------------|

  E  E  E  E  E  E  E  E     E  E  E  E  E  E  E  E   
--------------------------|--------------------------|
--------------------------|--------------------------|
--------------6--6--6--6--|--4--4--4--4--4--4--4--4--|
--7--7--7--7--------------|--------------------------|
--------------------------|--------------------------|
--------------------------|--------------------------|

  E  E  E  E  E  E  E  E     E  E  E  E  E  E  E  E   
--------------------------|--------------------------|
--------------------------|--------------------------|
--9--9--9--9--9--9--9--9--|--------------------------|
--------------------------|--4--4--4--4--6--6--6--6--|
--------------------------|--------------------------|
--------------------------|--------------------------|

  E  E  E  E  E  E  E  E     E  E  E  E  E  E  E  E   
--------------------------|--------------------------|
--------------------------|--------------------------|
--------------6--6--6--6--|--4--4--4--4--4--4--4--4--|
--7--7--7--7--------------|--------------------------|
--------------------------|--------------------------|
--------------------------|--------------------------|

  E  E  E  E  E  E  E  E     E  E  E  E  E  E  E  E   
--------------------------|--------------------------|
--------------------------|--------------------------|
--------------9--9--9--9--|--------------------------|
--6--6--6--6--------------|--4--4--4--4--6--6--6--6--|
--------------------------|--------------------------|
--------------------------|--------------------------|

  E  E  E  E  E  E  E  E     E  E  E  E  E  E  E  E   
--------------------------|--------------------------|
--------------------------|--------------------------|
--------------6--6--6--6--|--4--4--4--4--4--4--4--4--|
--7--7--7--7--------------|--------------------------|
--------------------------|--------------------------|
--------------------------|--------------------------|

  E  E  E  E  E  E  E  E     E  E  E  E  E  E  E  E   
--------------------------|--------------------------|
--------------------------|--2--2--2--2--2--2--2--2--|
--9--9--9--9--9--9--9--9--|--------------------------|
--------------------------|--------------------------|
--------------------------|--------------------------|
--------------------------|--------------------------|

  E  E  E  E  E  E  E  E     E  E  E  E  E  E  E  E   
--------------------------|--------------------------|
--2--2--2--2--5--5--5--5--|--9--9--9--9--9--9--9--9--|
--------------------------|--------------------------|
--------------------------|--------------------------|
--------------------------|--------------------------|
--------------------------|--------------------------|

  E  E  E  E  E  E  E  E      E   E   E   E   E   E   E   E   
--------------------------|--16--16--16--16--16--16--16--16--|
--9--9--9--9--9--9--9--9--|----------------------------------|
--------------------------|----------------------------------|
--------------------------|----------------------------------|
--------------------------|----------------------------------|
--------------------------|----------------------------------|

   E   E   E   E   E   E   E   E     E  E  E  E  E  E  E  E   
--12--12--12--12--14--14--14--14--|--7--7--7--7--7--7--7--7--|
----------------------------------|--------------------------|
----------------------------------|--------------------------|
----------------------------------|--------------------------|
----------------------------------|--------------------------|
----------------------------------|--------------------------|

  E  E  E  E  E  E  E  E      E   E   E   E   E   E   E   E   
--7--7--7--7--7--7--7--7--|--21--21--21--21--21--21--21--21--|
--------------------------|----------------------------------|
--------------------------|----------------------------------|
--------------------------|----------------------------------|
--------------------------|----------------------------------|
--------------------------|----------------------------------|

   E   E   E   E   E   E   E   E   
--19--19--19--19--21--21--21--21--|
----------------------------------|
----------------------------------|
----------------------------------|
----------------------------------|
----------------------------------|

   E   E   E   E   E   E   E   E   
--16--16--16--16--16--16--16--16--|
----------------------------------|
----------------------------------|
----------------------------------|
----------------------------------|
----------------------------------|

   E   E   E   E   E   E   E   E   
--16--16--16--16--16--16--16--16--|
----------------------------------|
----------------------------------|
----------------------------------|
----------------------------------|
----------------------------------|

   E   E   E   E   E   E   E   E   
--16--16--16--16--16--16--16--16--|
----------------------------------|
----------------------------------|
----------------------------------|
----------------------------------|
----------------------------------|

   E   E   E   E   E   E   E   E     E  E  E  E  E  E  E  E   
--12--12--12--12--14--14--14--14--|--7--7--7--7--7--7--7--7--|
----------------------------------|--------------------------|
----------------------------------|--------------------------|
----------------------------------|--------------------------|
----------------------------------|--------------------------|
----------------------------------|--------------------------|

  E  E  E  E  E  E  E  E     E  E  E  E  E  E  E  E   
--7--7--7--7--7--7--7--7--|--------------------------|
--------------------------|--2--2--2--2--2--2--2--2--|
--------------------------|--------------------------|
--------------------------|--------------------------|
--------------------------|--------------------------|
--------------------------|--------------------------|

  E  E  E  E  E  E  E  E     E  E  E  E  E  E  E  E   
--------------------------|--------------------------|
--2--2--2--2--5--5--5--5--|--9--9--9--9--9--9--9--9--|
--------------------------|--------------------------|
--------------------------|--------------------------|
--------------------------|--------------------------|
--------------------------|--------------------------|

  E  E  E  E  E  E  E  E      E   E   E   E   E   E   E   E   
--------------------------|--16--16--16--16--16--16--16--16--|
--9--9--9--9--9--9--9--9--|----------------------------------|
--------------------------|----------------------------------|
--------------------------|----------------------------------|
--------------------------|----------------------------------|
--------------------------|----------------------------------|

   E   E   E   E   E   E   E   E     E  E  E  E  E  E  E  E   
--12--12--12--12--14--14--14--14--|--7--7--7--7--7--7--7--7--|
----------------------------------|--------------------------|
----------------------------------|--------------------------|
----------------------------------|--------------------------|
----------------------------------|--------------------------|
----------------------------------|--------------------------|

  E  E  E  E  E  E  E  E      E   E   E   E   E   E  E  E   
--7--7--7--7--7--7--7--7--|--------------------------------|
--------------------------|--------------------------------|
--------------------------|--11--11--11--------------9--9--|
--------------------------|--------------11--11--11--------|
--------------------------|--------------------------------|
--------------------------|--------------------------------|

  E  E  E  E  E  E  E  E      E   E   E  E  E  E  E  E   
--------------------------|-----------------------------|
--------------------------|-----------------------9--9--|
--9-----------------------|--11--11--11--9--9--9--------|
-----9--9--9--9--9--9--9--|-----------------------------|
--------------------------|-----------------------------|
--------------------------|-----------------------------|

  E   E  E  E  E  E  E  E      E   E   E   E   E   E  E  E   
---------------------------|--------------------------------|
--9--10--------------------|--------------------------------|
---------9--9--9--9--9--9--|--11--11--11--------------9--9--|
---------------------------|--------------11--11--11--------|
---------------------------|--------------------------------|
---------------------------|--------------------------------|

  E  E  E  E  E  E  E  E      E   E   E  E  E  E  E  E   
--------------------------|-----------------------------|
--------------------------|-----------------------9--9--|
--9-----------------------|--11--11--11--9--9--9--------|
-----9--9--9--9--9--9--9--|-----------------------------|
--------------------------|-----------------------------|
--------------------------|-----------------------------|

  E   E  E  E  E  E  E  E      E   E   E   E   E   E  E  E   
---------------------------|--------------------------------|
--9--10--------------------|--------------------------------|
---------9--9--9--9--9--9--|--11--11--11--------------9--9--|
---------------------------|--------------11--11--11--------|
---------------------------|--------------------------------|
---------------------------|--------------------------------|

  E  E  E  E  E  E  E  E      E   E   E  E  E  E  E  E   
--------------------------|-----------------------------|
--------------------------|-----------------------9--9--|
--9-----------------------|--11--11--11--9--9--9--------|
-----9--9--9--9--9--9--9--|-----------------------------|
--------------------------|-----------------------------|
--------------------------|-----------------------------|

  E   E  E  E  E  E  E  E      E   E   E   E   E   E  E  E   
---------------------------|--------------------------------|
--9--10--------------------|--------------------------------|
---------9--9--9--9--9--9--|--11--11--11--------------9--9--|
---------------------------|--------------11--11--11--------|
---------------------------|--------------------------------|
---------------------------|--------------------------------|

  E  E  E  E  E  E  E  E      E   E   E  E  E  E  E  E   
--------------------------|-----------------------------|
--------------------------|-----------------------9--9--|
--9-----------------------|--11--11--11--9--9--9--------|
-----9--9--9--9--9--9--9--|-----------------------------|
--------------------------|-----------------------------|
--------------------------|-----------------------------|

  E   E  E  E  E  E  E  E    
---------------------------||
--9--10--------------------||
---------9--9--9--9--9--9--||
---------------------------||
---------------------------||
---------------------------||


Tom Smith(Guitarra 2 C/ Capotraste 2)
                                     Q    Q    Q    Q     
E||-------|-------|-------|-------|----------------------|
B||-------|-------|-------|-------|----------------------|
G||-------|-------|-------|-------|--5----5----5----5----|
D||-------|-------|-------|-------|--5----5----5----5----|
A||-------|-------|-------|-------|--3----3----3----3----|
E||-------|-------|-------|-------|----------------------|


  Q    Q    Q    Q       Q    Q    Q    Q     
----------------------|----------------------|
----------------------|----------------------|
--5----5----5----5----|--5----5----5----5----|
--5----5----5----5----|--5----5----5----5----|
--3----3----3----3----|--3----3----3----3----|
----------------------|----------------------|

  Q    Q    Q    Q       Q    Q    Q    Q     
----------------------|----------------------|
----------------------|----------------------|
--5----5----5----5----|--5----5----5----5----|
--5----5----5----5----|--5----5----5----5----|
--3----3----3----3----|--3----3----3----3----|
----------------------|----------------------|

  Q    Q    Q    Q       Q    Q    Q    Q     
----------------------|----------------------|
----------------------|----------------------|
--5----5----5----5----|--5----5----5----5----|
--5----5----5----5----|--5----5----5----5----|
--3----3----3----3----|--3----3----3----3----|
----------------------|----------------------|

  Q    Q    Q    Q                                             
----------------------|-------|-------|-------|-------|-------|
----------------------|-------|-------|-------|-------|-------|
--5----5----5----5----|-------|-------|-------|-------|-------|
--5----5----5----5----|-------|-------|-------|-------|-------|
--3----3----3----3----|-------|-------|-------|-------|-------|
----------------------|-------|-------|-------|-------|-------|

                          Q    Q    Q    Q     
-------|-------|-------|----------------------|
-------|-------|-------|--3----3----3----3----|
-------|-------|-------|--0----0----0----0----|
-------|-------|-------|--4----4----4----4----|
-------|-------|-------|--5----5----5----5----|
-------|-------|-------|----------------------|

  Q    Q    Q    Q       Q    Q    Q    Q     
----------------------|----------------------|
--1----1----1----1----|--1----1----1----1----|
--2----2----2----2----|--0----0----0----0----|
--2----2----2----2----|--2----2----2----2----|
--0----0----0----0----|--3----3----3----3----|
----------------------|----------------------|

  Q    Q    Q    Q       Q    Q    Q    Q     
----------------------|----------------------|
----------------------|--3----3----3----3----|
--0----0----0----0----|--0----0----0----0----|
--2----2----2----2----|--4----4----4----4----|
--2----2----2----2----|--5----5----5----5----|
--0----0----0----0----|----------------------|

  Q    Q    Q    Q       Q    Q    Q    Q     
----------------------|----------------------|
--1----1----1----1----|--1----1----1----1----|
--2----2----2----2----|--0----0----0----0----|
--2----2----2----2----|--2----2----2----2----|
--0----0----0----0----|--3----3----3----3----|
----------------------|----------------------|

  Q    Q    Q    Q       Q    Q    Q    Q     
----------------------|----------------------|
----------------------|--3----3----3----3----|
--0----0----0----0----|--0----0----0----0----|
--2----2----2----2----|--4----4----4----4----|
--2----2----2----2----|--5----5----5----5----|
--0----0----0----0----|----------------------|

  Q    Q    Q    Q       Q    Q    Q    Q     
----------------------|----------------------|
--3----3----3----3----|--1----1----1----1----|
--0----0----0----0----|--2----2----2----2----|
--4----4----4----4----|--2----2----2----2----|
--5----5----5----5----|--0----0----0----0----|
----------------------|----------------------|

  Q    Q    Q    Q       Q    Q    Q    Q     
----------------------|----------------------|
------------3----3----|--3----3----3----3----|
--0----0----0----0----|--0----0----0----0----|
--2----2----0----0----|--4----4----4----4----|
--2----2----2----2----|--5----5----5----5----|
--0----0----3----3----|----------------------|

  Q    Q    Q    Q       Q    Q    Q    Q     
----------------------|----------------------|
--3----3----3----3----|--1----1----1----1----|
--0----0----0----0----|--2----2----2----2----|
--4----4----4----4----|--2----2----2----2----|
--5----5----5----5----|--0----0----0----0----|
----------------------|----------------------|

  Q    Q    Q    Q       Q    Q    Q    Q     
----------------------|----------------------|
------------3----3----|--3----3----3----3----|
--0----0----0----0----|--0----0----0----0----|
--2----2----0----0----|--4----4----4----4----|
--2----2----2----2----|--5----5----5----5----|
--0----0----3----3----|----------------------|

  Q    Q    Q    Q       Q    Q    Q    Q     
----------------------|----------------------|
--3----3----3----3----|----------------------|
--0----0----0----0----|--5----5----5----5----|
--4----4----4----4----|--5----5----5----5----|
--5----5----5----5----|--3----3----3----3----|
----------------------|----------------------|

  Q    Q    Q    Q       Q    Q    Q    Q     
----------------------|----------------------|
----------------------|----------------------|
--5----5----5----5----|--5----5----5----5----|
--5----5----5----5----|--5----5----5----5----|
--3----3----3----3----|--3----3----3----3----|
----------------------|----------------------|

  Q    Q    Q    Q       Q    Q    Q    Q     
----------------------|----------------------|
----------------------|----------------------|
--5----5----5----5----|--5----5----5----5----|
--5----5----5----5----|--5----5----5----5----|
--3----3----3----3----|--3----3----3----3----|
----------------------|----------------------|

  Q    Q    Q    Q       Q    Q    Q    Q     
----------------------|----------------------|
----------------------|----------------------|
--5----5----5----5----|--5----5----5----5----|
--5----5----5----5----|--5----5----5----5----|
--3----3----3----3----|--3----3----3----3----|
----------------------|----------------------|

  Q    Q    Q    Q                                             
----------------------|-------|-------|-------|-------|-------|
----------------------|-------|-------|-------|-------|-------|
--5----5----5----5----|-------|-------|-------|-------|-------|
--5----5----5----5----|-------|-------|-------|-------|-------|
--3----3----3----3----|-------|-------|-------|-------|-------|
----------------------|-------|-------|-------|-------|-------|

                          Q    Q    Q    Q     
-------|-------|-------|----------------------|
-------|-------|-------|--3----3----3----3----|
-------|-------|-------|--0----0----0----0----|
-------|-------|-------|--4----4----4----4----|
-------|-------|-------|--5----5----5----5----|
-------|-------|-------|----------------------|

  Q    Q    Q    Q       Q    Q    Q    Q     
----------------------|----------------------|
--1----1----1----1----|--1----1----1----1----|
--2----2----2----2----|--0----0----0----0----|
--2----2----2----2----|--2----2----2----2----|
--0----0----0----0----|--3----3----3----3----|
----------------------|----------------------|

  Q    Q    Q    Q       Q    Q    Q    Q     
----------------------|----------------------|
----------------------|--3----3----3----3----|
--0----0----0----0----|--0----0----0----0----|
--2----2----2----2----|--4----4----4----4----|
--2----2----2----2----|--5----5----5----5----|
--0----0----0----0----|----------------------|

  Q    Q    Q    Q       Q    Q    Q    Q     
----------------------|----------------------|
--1----1----1----1----|--1----1----1----1----|
--2----2----2----2----|--0----0----0----0----|
--2----2----2----2----|--2----2----2----2----|
--0----0----0----0----|--3----3----3----3----|
----------------------|----------------------|

  Q    Q    Q    Q       Q    Q    Q    Q     
----------------------|----------------------|
----------------------|--3----3----3----3----|
--0----0----0----0----|--0----0----0----0----|
--2----2----2----2----|--4----4----4----4----|
--2----2----2----2----|--5----5----5----5----|
--0----0----0----0----|----------------------|

  Q    Q    Q    Q       Q    Q    Q    Q     
----------------------|----------------------|
--3----3----3----3----|--1----1----1----1----|
--0----0----0----0----|--2----2----2----2----|
--4----4----4----4----|--2----2----2----2----|
--5----5----5----5----|--0----0----0----0----|
----------------------|----------------------|

  Q    Q    Q    Q       Q    Q    Q    Q     
----------------------|----------------------|
------------3----3----|--3----3----3----3----|
--0----0----0----0----|--0----0----0----0----|
--2----2----0----0----|--4----4----4----4----|
--2----2----2----2----|--5----5----5----5----|
--0----0----3----3----|----------------------|

  Q    Q    Q    Q       Q    Q    Q    Q     
----------------------|----------------------|
--3----3----3----3----|--1----1----1----1----|
--0----0----0----0----|--2----2----2----2----|
--4----4----4----4----|--2----2----2----2----|
--5----5----5----5----|--0----0----0----0----|
----------------------|----------------------|

  Q    Q    Q    Q       Q    Q    Q    Q     
----------------------|----------------------|
------------3----3----|--3----3----3----3----|
--0----0----0----0----|--0----0----0----0----|
--2----2----0----0----|--4----4----4----4----|
--2----2----2----2----|--5----5----5----5----|
--0----0----3----3----|----------------------|

  Q    Q    Q    Q       Q    Q    Q    Q     
----------------------|----------------------|
--3----3----3----3----|--1----1----1----1----|
--0----0----0----0----|--2----2----2----2----|
--4----4----4----4----|--2----2----2----2----|
--5----5----5----5----|--0----0----0----0----|
----------------------|----------------------|

  Q    Q    Q    Q       Q    Q    Q    Q     
----------------------|----------------------|
------------3----3----|--3----3----3----3----|
--0----0----0----0----|--0----0----0----0----|
--2----2----0----0----|--4----4----4----4----|
--2----2----2----2----|--5----5----5----5----|
--0----0----3----3----|----------------------|

  Q    Q    Q    Q       Q    Q    Q    Q     
----------------------|----------------------|
--3----3----3----3----|--1----1----1----1----|
--0----0----0----0----|--2----2----2----2----|
--4----4----4----4----|--2----2----2----2----|
--5----5----5----5----|--0----0----0----0----|
----------------------|----------------------|

  Q    Q    Q    Q       Q    Q    Q    Q     
----------------------|----------------------|
------------3----3----|--3----3----3----3----|
--0----0----0----0----|--0----0----0----0----|
--2----2----
Composição de Christopher Urbanowicz / Edward Lay / Russell Leetch / Thomas Michael Henry Smith
Colaboração e revisão:
  • Danilo Dutra
2.011 exibições
    • ½ Tom
    • A
    • Bb
    • B
    • C
    • Db
    • D
    • Eb
    • E
    • F
    • F#
    • G
    • Ab
  • Adicionar à lista

    0 comentários

    Ver todos os comentários

    Conseguiu tocar?

    0 Tocaram 0 Ainda não

    Grave um vídeo tocando An End Has a Start e nos envie!

    00:00 / 00:00
    outros vídeos desta música
    repetir qualidade Automático
    Outros vídeos desta música
    00:00 / 00:00
    Automático

    Cifra Club Pro

    Aproveite o Cifra Club com benefícios exclusivos e sem anúncios
    Cifra Club Pro
    Aproveite o Cifra Club com benefícios exclusivos e sem anúncios
    OK