Cifra Club

Aprenda

Blood

Editors

Cifra: Principal (violão e guitarra)
tom: E
(intro 4x)

E|-------9-9-------9-9---------9-9----7-7------------------------------------|
B|--7-7-------7-7--------7-7---------------9-9-------------------------------|
G|---------------------------------------------------------------------------|
D|---------------------------------------------------------------------------|
A|---------------------------------------------------------------------------|
E|---------------------------------------------------------------------------|

E|--------9-9---------9-9--------9-9----7-7----------------------------------|
B|--7-7---------7-7--------7-7-----------------9p7h9-------------------------|
G|---------------------------------------------------------------------------|
D|---------------------------------------------------------------------------|
A|---------------------------------------------------------------------------|
E|---------------------------------------------------------------------------|

(verso 2x)
E|---------------------------------------------------------------------------|
B|--9-----7-----10---------------9----10----7--------------------------------|
G|---------------------------------------------------------------------------|
D|---------------------------------------------------------------------------|
A|---------------------------------------------------------------------------|
E|---------------------------------------------------------------------------|

E|------9----16x-------------------------------------------------------------|
B|------7--------------------------------------------------------------------|
G|---------------------------------------------------------------------------|
D|---------------------------------------------------------------------------|
A|---------------------------------------------------------------------------|
E|---------------------------------------------------------------------------|

(refrão 4x)
E|----------9/12--9---12---7---9--9--9--7------------------------------------|
B|---7-------------------------------------9---7-----------------------------|
G|---------------------------------------------------------------------------|
D|---------------------------------------------------------------------------|
A|---------------------------------------------------------------------------|
E|---------------------------------------------------------------------------|

E|---------9-9--------9-9-------9-9---9--9-----------------------------------|
B|---7-7---------7-7-------7-7--------7--7-----------------------------------|
G|---------------------------------------------------------------------------|
D|---------------------------------------------------------------------------|
A|---------------------------------------------------------------------------|
E|---------------------------------------------------------------------------|

E|--------9-9--------9-9--------9-9---9--9---3x------------------------------|
B|--7-7--------7-7--------7-7---------7--7-----------------------------------|
G|---------------------------------------------------------------------------|
D|---------------------------------------------------------------------------|
A|---------------------------------------------------------------------------|
E|---------------------------------------------------------------------------|

...then...

E|--------9-9--------9-9-------9-9--9--9\------------------------------------|
B|--7-7---------7-7-------7-7-------7--7\------------------------------------|
G|---------------------------------------------------------------------------|
D|---------------------------------------------------------------------------|
A|---------------------------------------------------------------------------|
E|---------------------------------------------------------------------------|
Composição de Chris Urbanowicz / Ed Lay / Russell Leetch / Tom Smith
Colaboração e revisão:
  • Jefferson Sousa
270 exibições
    • ½ Tom
    • A
    • Bb
    • B
    • C
    • Db
    • D
    • Eb
    • E
    • F
    • F#
    • G
    • Ab
  • Adicionar à lista

    0 comentários

    Ver todos os comentários

    Conseguiu tocar?

    0 Tocaram 0 Ainda não

    Grave um vídeo tocando Blood e nos envie!

    00:00 / 00:00
    outros vídeos desta música
    repetir qualidade Automático
    Outros vídeos desta música
    00:00 / 00:00
    Automático

    Cifra Club Pro

    Aproveite o Cifra Club com benefícios exclusivos e sem anúncios
    Cifra Club Pro
    Aproveite o Cifra Club com benefícios exclusivos e sem anúncios
    OK