Cifra Club

Aprenda

Bones

Editors

Cifra: Principal (violão e guitarra)
Já pensou em usar uma coleção de roupas do Cifra Club? Responda as perguntas abaixo e nos ajude nessa missão! →
tom: G
Chris Urbanowicks(Guitarra 1)

      E   E   E   E   E   E   E   E   
E||----------------------------------|
B||--12--12--12--12--12--12--12--10--|
G||----------------------------------|
D||----------------------------------|
A||----------------------------------|
E||----------------------------------|


   E   E   E   E   E   E   E   E   
----------12--12--12--12--12--12--|
--10--10--------------------------|
----------------------------------|
----------------------------------|
----------------------------------|
----------------------------------|

   E  E   E   E   E   E   E   E   
--12--9--------------------------|
---------10----------------------|
-------------11--11--11--11--11--|
---------------------------------|
---------------------------------|
---------------------------------|

   E   E   E   E   E   E   E   E   
----------------------------------|
----------------------------------|
--11--11--11--11--11--11--11--11--|
----------------------------------|
----------------------------------|
----------------------------------|

   E   E   E   E   E   E   E   E   
----------------------------------|
--12--12--12--12--12--12--12--10--|
----------------------------------|
----------------------------------|
----------------------------------|
----------------------------------|

   E   E   E   E   E   E   E   E   
----------12--12--12--12--12--12--|
--10--10--------------------------|
----------------------------------|
----------------------------------|
----------------------------------|
----------------------------------|

   E  E   E   E   E   E   E   E   
--12--9--------------------------|
---------10----------------------|
-------------11--11--11--11--11--|
---------------------------------|
---------------------------------|
---------------------------------|

   E   E   E   E   E   E   E   E   
----------------------------------|
----------------------------------|
--11--11--11--11--11--11--11--11--|
----------------------------------|
----------------------------------|
----------------------------------|

   E   E   E   E   E   E   E   E   
----------------------------------|
--12--12--12--12--12--12--12--10--|
----------------------------------|
----------------------------------|
----------------------------------|
----------------------------------|

   E   E   E   E   E   E   E   E   
----------12--12--12--12--12--12--|
--10--10--------------------------|
----------------------------------|
----------------------------------|
----------------------------------|
----------------------------------|

   E  E   E   E   E   E   E   E   
--12--9--------------------------|
---------10----------------------|
-------------11--11--11--11--11--|
---------------------------------|
---------------------------------|
---------------------------------|

   E   E   E   E   E   E   E   E   
----------------------------------|
----------------------------------|
--11--11--11--11--11--11--11--11--|
----------------------------------|
----------------------------------|
----------------------------------|

   E   E   E   E   E   E   E   E   
----------------------------------|
--12--12--12--12--12--12--12--10--|
----------------------------------|
----------------------------------|
----------------------------------|
----------------------------------|

   E   E   E   E   E   E   E   E   
----------12--12--12--12--12--12--|
--10--10--------------------------|
----------------------------------|
----------------------------------|
----------------------------------|
----------------------------------|

   E  E   E   E   E   E   E   E   
--12--9--------------------------|
---------10----------------------|
-------------11--11--11--11--11--|
---------------------------------|
---------------------------------|
---------------------------------|

   E   E   E   E   E   E   E   E                                 
----------------------------------|-----|-----|-----|-----|-----|
----------------------------------|-----|-----|-----|-----|-----|
--11--11--11--11--11--11--11--11--|-----|-----|-----|-----|-----|
----------------------------------|-----|-----|-----|-----|-----|
----------------------------------|-----|-----|-----|-----|-----|
----------------------------------|-----|-----|-----|-----|-----|

-----|-----|-----|-----|-----|-----|-----|-----|-----|-----|
-----|-----|-----|-----|-----|-----|-----|-----|-----|-----|
-----|-----|-----|-----|-----|-----|-----|-----|-----|-----|
-----|-----|-----|-----|-----|-----|-----|-----|-----|-----|
-----|-----|-----|-----|-----|-----|-----|-----|-----|-----|
-----|-----|-----|-----|-----|-----|-----|-----|-----|-----|

         E   E   E   E   E   E   E   E   
-----|----------------------------------|
-----|--12--12--12--10--10--10--10--10--|
-----|----------------------------------|
-----|----------------------------------|
-----|----------------------------------|
-----|----------------------------------|

   E   E   E   E   E   E   E   E   
----------12--12--12--12--12--12--|
--10--10--------------------------|
----------------------------------|
----------------------------------|
----------------------------------|
----------------------------------|

   E  E   E   E   E   E   E   E   
--12--9--------------------------|
---------10----------------------|
-------------11--11--11--11--11--|
---------------------------------|
---------------------------------|
---------------------------------|

   E   E   E   E   E   E   E   E   
----------------------------------|
----------------------------------|
--11--11--11--11--11--11--11--11--|
----------------------------------|
----------------------------------|
----------------------------------|

   E   E   E   E   E   E   E   E   
----------------------------------|
--12--12--12--10--10--10--10--10--|
----------------------------------|
----------------------------------|
----------------------------------|
----------------------------------|

   E   E   E   E   E   E   E   E   
----------12--12--12--12--12--12--|
--10--10--------------------------|
----------------------------------|
----------------------------------|
----------------------------------|
----------------------------------|

   E  E   E   E   E   E   E   E   
--12--9--------------------------|
---------10----------------------|
-------------13--13--13--13--13--|
---------------------------------|
---------------------------------|
---------------------------------|

   E   E   E   E   E   E   E   E   
----------------------------------|
----------------------------------|
--13--13--13--13--13--13--13--13--|
----------------------------------|
----------------------------------|
----------------------------------|

   E   E   E   E   E   E   E   E   
----------------------------------|
--12--12--12--10--10--10--10--10--|
----------------------------------|
----------------------------------|
----------------------------------|
----------------------------------|

   E   E   E   E   E   E   E   E   
----------12--12--12--12--12--12--|
--10--10--------------------------|
----------------------------------|
----------------------------------|
----------------------------------|
----------------------------------|

   E  E   E   E   E   E   E   E   
--12--9--------------------------|
---------10----------------------|
-------------11--11--11--11--11--|
---------------------------------|
---------------------------------|
---------------------------------|

   E   E   E   E   E   E   E   E   
----------------------------------|
----------------------------------|
--11--11--11--11--11--11--11--11--|
----------------------------------|
----------------------------------|
----------------------------------|

   E   E   E   E   E   E   E   E   
----------------------------------|
--12--12--12--10--10--10--10--10--|
----------------------------------|
----------------------------------|
----------------------------------|
----------------------------------|

   E   E   E   E   E   E   E   E   
----------12--12--12--12--12--12--|
--10--10--------------------------|
----------------------------------|
----------------------------------|
----------------------------------|
----------------------------------|

   E  E   E   E   E   E   E   E   
--12--9--------------------------|
---------10----------------------|
-------------13--13--13--13--13--|
---------------------------------|
---------------------------------|
---------------------------------|

   E   E   E   E   E   E   E   E   
----------------------------------|
----------------------------------|
--13--13--13--13--13--13--13--13--|
----------------------------------|
----------------------------------|
----------------------------------|

   E   E   E   E   E   E   E   E   
----------------------------------|
--12--12--12--12--12--12--12--10--|
----------------------------------|
----------------------------------|
----------------------------------|
----------------------------------|

   E   E   E   E   E   E   E   E   
----------12--12--12--12--12--12--|
--10--10--------------------------|
----------------------------------|
----------------------------------|
----------------------------------|
----------------------------------|

   E  E   E   E   E   E   E   E   
--12--9--------------------------|
---------10----------------------|
-------------11--11--11--11--11--|
---------------------------------|
---------------------------------|
---------------------------------|

   E   E   E   E   E   E   E   E   
----------------------------------|
----------------------------------|
--11--11--11--11--11--11--11--11--|
----------------------------------|
----------------------------------|
----------------------------------|

   E   E   E   E   E   E   E   E   
----------------------------------|
--12--12--12--12--12--12--12--10--|
----------------------------------|
----------------------------------|
----------------------------------|
----------------------------------|

   E   E   E   E   E   E   E   E   
----------12--12--12--12--12--12--|
--10--10--------------------------|
----------------------------------|
----------------------------------|
----------------------------------|
----------------------------------|

   E  E   E   E   E   E   E   E   
--12--9--------------------------|
---------10----------------------|
-------------11--11--11--11--11--|
---------------------------------|
---------------------------------|
---------------------------------|

   E   E   E   E   E   E   E   E                                 
----------------------------------|-----|-----|-----|-----|-----|
----------------------------------|-----|-----|-----|-----|-----|
--11--11--11--11--11--11--11--11--|-----|-----|-----|-----|-----|
----------------------------------|-----|-----|-----|-----|-----|
----------------------------------|-----|-----|-----|-----|-----|
----------------------------------|-----|-----|-----|-----|-----|

-----|-----|-----|-----|-----|-----|-----|-----|-----|-----|
-----|-----|-----|-----|-----|-----|-----|-----|-----|-----|
-----|-----|-----|-----|-----|-----|-----|-----|-----|-----|
-----|-----|-----|-----|-----|-----|-----|-----|-----|-----|
-----|-----|-----|-----|-----|-----|-----|-----|-----|-----|
-----|-----|-----|-----|-----|-----|-----|-----|-----|-----|

         E   E   E   E   E   E   E   E   
-----|----------------------------------|
-----|--12--12--12--10--10--10--10--10--|
-----|----------------------------------|
-----|----------------------------------|
-----|----------------------------------|
-----|----------------------------------|

   E   E   E   E   E   E   E   E   
----------12--12--12--12--12--12--|
--10--10--------------------------|
----------------------------------|
----------------------------------|
----------------------------------|
----------------------------------|

   E  E   E   E   E   E   E   E   
--12--9--------------------------|
---------10----------------------|
-------------11--11--11--11--11--|
---------------------------------|
---------------------------------|
---------------------------------|

   E   E   E   E   E   E   E   E   
----------------------------------|
----------------------------------|
--11--11--11--11--11--11--11--11--|
----------------------------------|
----------------------------------|
----------------------------------|

   E   E   E   E   E   E   E   E   
----------------------------------|
--12--12--12--10--10--10--10--10--|
----------------------------------|
----------------------------------|
----------------------------------|
----------------------------------|

   E   E   E   E   E   E   E   E   
----------12--12--12--12--12--12--|
--10--10--------------------------|
----------------------------------|
----------------------------------|
----------------------------------|
----------------------------------|

   E  E   E   E   E   E   E   E   
--12--9--------------------------|
---------10----------------------|
-------------13--13--13--13--13--|
---------------------------------|
---------------------------------|
---------------------------------|

   E   E   E   E   E   E   E   E   
----------------------------------|
----------------------------------|
--13--13--13--13--13--13--13--13--|
----------------------------------|
----------------------------------|
----------------------------------|

   E   E   E   E   E   E   E   E   
----------------------------------|
--12--12--12--10--10--10--10--10--|
----------------------------------|
----------------------------------|
----------------------------------|
----------------------------------|

   E   E   E   E   E   E   E   E   
----------12--12--12--12--12--12--|
--10--10--------------------------|
----------------------------------|
----------------------------------|
----------------------------------|
----------------------------------|

   E  E   E   E   E   E   E   E   
--12--9--------------------------|
---------10----------------------|
-------------11--11--11--11--11--|
---------------------------------|
---------------------------------|
---------------------------------|

   E   E   E   E   E   E   E   E   
----------------------------------|
----------------------------------|
--11--11--11--11--11--11--11--11--|
----------------------------------|
----------------------------------|
----------------------------------|

   E   E   E   E   E   E   E   E   
----------------------------------|
--12--12--12--10--10--10--10--10--|
----------------------------------|
----------------------------------|
----------------------------------|
----------------------------------|

   E   E   E   E   E   E   E   E   
----------12--12--12--12--12--12--|
--10--10--------------------------|
----------------------------------|
----------------------------------|
----------------------------------|
----------------------------------|

   E  E   E   E   E   E   E   E   
--12--9--------------------------|
---------10----------------------|
-------------13--13--13--13--13--|
---------------------------------|
---------------------------------|
---------------------------------|


                                      tr                    
   E   E   E   E   E   E   E   E      W                     
----------------------------------|--19(19)----------------|
----------------------------------|------------------------|
--13--13--13--13--13--13--13--13--|------------------------|
----------------------------------|------------------------|
----------------------------------|------------------------|
----------------------------------|------------------------|


   tr                       tr                    
   W                        W                     
--17(17)----------------|--16(16)----------------|
------------------------|------------------------|
------------------------|------------------------|
------------------------|------------------------|
------------------------|------------------------|
------------------------|------------------------|


   tr                       tr                    
   W                        W                     
--12(12)----------------|--19(19)----------------|
------------------------|------------------------|
------------------------|------------------------|
------------------------|------------------------|
------------------------|------------------------|
------------------------|------------------------|


   tr                       tr                    
   W                        W                     
--17(17)----------------|--16(16)----------------|
------------------------|------------------------|
------------------------|------------------------|
------------------------|------------------------|
------------------------|------------------------|
------------------------|------------------------|


   tr                       tr                    
   W                        W                     
--12(12)----------------|--19(19)----------------|
------------------------|------------------------|
------------------------|------------------------|
------------------------|------------------------|
------------------------|------------------------|
------------------------|------------------------|


   tr                       tr                    
   W                        W                     
--17(17)----------------|--16(16)----------------|
------------------------|------------------------|
------------------------|------------------------|
------------------------|------------------------|
------------------------|------------------------|
------------------------|------------------------|


   tr                       tr                    
   W                        W                     
--12(12)----------------|--19(19)----------------|
------------------------|------------------------|
------------------------|------------------------|
------------------------|------------------------|
------------------------|------------------------|
------------------------|------------------------|


   tr                       tr                    
   W                        W                     
--17(17)----------------|--16(16)----------------|
------------------------|------------------------|
------------------------|------------------------|
------------------------|------------------------|
------------------------|------------------------|
------------------------|------------------------|


   tr                    
   W                     
--12(12)----------------|
------------------------|
------------------------|
------------------------|
------------------------|
------------------------|

    E     E    E     E     E     E     E    E    
--(12)--(10)--(9)--------------(12)--(10)--(9)--|
-------------------(12)--(10)-------------------|
------------------------------------------------|
------------------------------------------------|
------------------------------------------------|
------------------------------------------------|

    E     E     E     E    E     E     E     E    
--------------(12)--(10)--(9)--------------(12)--|
--(12)--(10)-------------------(12)--(10)--------|
-------------------------------------------------|
-------------------------------------------------|
-------------------------------------------------|
-------------------------------------------------|

    E     E    E     E     E     E     E    E    
--(12)--(10)--(9)--------------(12)--(10)--(9)--|
-------------------(12)--(10)-------------------|
------------------------------------------------|
------------------------------------------------|
------------------------------------------------|
------------------------------------------------|

    E     E     E     E    E     E     E     E    
--------------(12)--(10)--(9)--------------(12)--|
--(12)--(10)-------------------(12)--(10)--------|
-------------------------------------------------|
-------------------------------------------------|
-------------------------------------------------|
-------------------------------------------------|

    E     E    E     E     E     E     E    E    
--(12)--(10)--(9)--------------(12)--(10)--(9)--|
-------------------(12)--(10)-------------------|
------------------------------------------------|
------------------------------------------------|
------------------------------------------------|
------------------------------------------------|

    E     E     E     E    E     E     E     E    
--------------(12)--(10)--(9)--------------(12)--|
--(12)--(10)-------------------(12)--(10)--------|
-------------------------------------------------|
-------------------------------------------------|
-------------------------------------------------|
-------------------------------------------------|

    E     E    E     E     E     E     E    E    
--(12)--(10)--(9)--------------(12)--(10)--(9)--|
-------------------(12)--(10)-------------------|
------------------------------------------------|
------------------------------------------------|
------------------------------------------------|
------------------------------------------------|

    E     E     E     E    E     E     E     E    
--------------(12)--(10)--(9)--------------(12)--|
--(12)--(10)-------------------(12)--(10)--------|
-------------------------------------------------|
-------------------------------------------------|
-------------------------------------------------|
-------------------------------------------------|

    E     E    E     E     E     E     E    E    
--(12)--(10)--(9)--------------(12)--(10)--(9)--|
-------------------(12)--(10)-------------------|
------------------------------------------------|
------------------------------------------------|
------------------------------------------------|
------------------------------------------------|

    E     E     E     E    E     E     E     E    
--------------(12)--(10)--(9)--------------(12)--|
--(12)--(10)-------------------(12)--(10)--------|
-------------------------------------------------|
-------------------------------------------------|
-------------------------------------------------|
-------------------------------------------------|

    E     E    E     E     E     E     E    E    
--(12)--(10)--(9)--------------(12)--(10)--(9)--|
-------------------(12)--(10)-------------------|
------------------------------------------------|
------------------------------------------------|
------------------------------------------------|
------------------------------------------------|

    E     E     E     E    E     E     E     E    
--------------(12)--(10)--(9)--------------(12)--|
--(12)--(10)-------------------(12)--(10)--------|
-------------------------------------------------|
-------------------------------------------------|
-------------------------------------------------|
-------------------------------------------------|

    E     E    E     E     E     E     E    E    
--(12)--(10)--(9)--------------(12)--(10)--(9)--|
-------------------(12)--(10)-------------------|
------------------------------------------------|
------------------------------------------------|
------------------------------------------------|
------------------------------------------------|

    E     E     E     E    E     E     E     E    
--------------(12)--(10)--(9)--------------(12)--|
--(12)--(10)-------------------(12)--(10)--------|
-------------------------------------------------|
-------------------------------------------------|
-------------------------------------------------|
-------------------------------------------------|

    E     E    E     E     E     E     E    E    
--(12)--(10)--(9)--------------(12)--(10)--(9)--|
-------------------(12)--(10)-------------------|
------------------------------------------------|
------------------------------------------------|
------------------------------------------------|
------------------------------------------------|


   tr                       tr                    
   W                        W                     
------------------------|------------------------|
--12(12)----------------|--14(14)----------------|
------------------------|------------------------|
------------------------|------------------------|
------------------------|------------------------|
------------------------|------------------------|


   tr                       tr                    
   W                        W                     
------------------------|------------------------|
--14(14)----------------|--12(12)----------------|
------------------------|------------------------|
------------------------|------------------------|
------------------------|------------------------|
------------------------|------------------------|


    tr        tr        tr      tr        tr      
    Q         Q         E       Q         E       
-------------------------------------------------|
--/17(17)----15(15)----14(14)--12(12)----10(10)--|
-------------------------------------------------|
-------------------------------------------------|
-------------------------------------------------|
-------------------------------------------------|


   tr                       tr                    
   W                        W                     
------------------------|------------------------|
--10(10)----------------|--10(10)----------------|
------------------------|------------------------|
------------------------|------------------------|
------------------------|------------------------|
------------------------|------------------------|


  tr                      tr                    
  W                       W                     
----------------------|------------------------|
--9(9)----------------|--12(12)----------------|
----------------------|------------------------|
----------------------|------------------------|
----------------------|------------------------|
----------------------|------------------------|


   tr                       tr                    
   W                        W                     
------------------------|------------------------|
--14(14)----------------|--14(14)----------------|
------------------------|------------------------|
------------------------|------------------------|
------------------------|------------------------|
------------------------|------------------------|


   tr                    
   W                     
------------------------|
--12(12)----------------|
------------------------|
------------------------|
------------------------|
------------------------|


    tr        tr        tr      tr        tr      
    Q         Q         E       Q         E       
-------------------------------------------------|
--/17(17)----15(15)----14(14)--12(12)----10(10)--|
-------------------------------------------------|
-------------------------------------------------|
-------------------------------------------------|
-------------------------------------------------|


   tr                       tr                    
   W                        W                     
------------------------|------------------------|
--10(10)----------------|--10(10)----------------|
------------------------|------------------------|
------------------------|------------------------|
------------------------|------------------------|
------------------------|------------------------|


  tr                      tr                    
  W                       W                     
----------------------|------------------------|
--9(9)----------------|--12(12)----------------|
----------------------|------------------------|
----------------------|------------------------|
----------------------|------------------------|
----------------------|------------------------|


   tr                       tr                    
   W                        W                     
------------------------|------------------------|
--14(14)----------------|--14(14)----------------|
------------------------|------------------------|
------------------------|------------------------|
------------------------|------------------------|
------------------------|------------------------|


   tr                    
   W                     
------------------------|
--12(12)----------------|
------------------------|
------------------------|
------------------------|
------------------------|


    tr        tr        tr      tr        tr      
    Q         Q         E       Q         E       
-------------------------------------------------|
--/17(17)----15(15)----14(14)--12(12)----10(10)--|
-------------------------------------------------|
-------------------------------------------------|
-------------------------------------------------|
-------------------------------------------------|


   tr                       tr                    
   W                        W                     
------------------------|------------------------|
--10(10)----------------|--10(10)----------------|
------------------------|------------------------|
------------------------|------------------------|
------------------------|------------------------|
------------------------|------------------------|


  tr                      tr                    
  W                       W                     
----------------------|------------------------|
--9(9)----------------|--12(12)----------------|
----------------------|------------------------|
----------------------|------------------------|
----------------------|------------------------|
----------------------|------------------------|


   tr                       tr                    
   W                        W                     
------------------------|------------------------|
--14(14)----------------|--14(14)----------------|
------------------------|------------------------|
------------------------|------------------------|
------------------------|------------------------|
------------------------|------------------------|


   tr                    
   W                     
------------------------|
--12(12)----------------|
------------------------|
------------------------|
------------------------|
------------------------|


    tr        tr        tr      tr        tr      
    Q         Q         E       Q         E       
-------------------------------------------------|
--/17(17)----15(15)----14(14)--12(12)----10(10)--|
-------------------------------------------------|
-------------------------------------------------|
-------------------------------------------------|
-------------------------------------------------|


   tr                       tr                    
   W                        W                     
------------------------|------------------------|
--10(10)----------------|--10(10)----------------|
------------------------|------------------------|
------------------------|------------------------|
------------------------|------------------------|
------------------------|------------------------|


  tr                      tr                    
  W                       W                     
----------------------|------------------------|
--9(9)----------------|--12(12)----------------|
----------------------|------------------------|
----------------------|------------------------|
----------------------|------------------------|
----------------------|------------------------|

   W                    W                  
---------------------|-------------------||
--23b----------------|--L----------------||
---------------------|-------------------||
---------------------|-------------------||
---------------------|-------------------||
---------------------|-------------------||


                                                          Editors
Tom Smith(Guitarra 2)

                     E  E   E  E  E  E   E  E   
E||-------|-------|---------9------------9-----|
B||-------|-------|--------10-----------10-----|
G||-------|-------|--------11-----------11-----|
D||-------|-------|----------------------------|
A||-------|-------|----------------------------|
E||-------|-------|----------------------------|


  E  E   E  E  E  E   E  E                   
---------9------------9-----|-------|-------|
--------10-----------10-----|-------|-------|
--------11-----------11-----|-------|-------|
----------------------------|-------|-------|
----------------------------|-------|-------|
----------------------------|-------|-------|

  E  E   E  E  E  E   E  E     E  E   E  E  E  E   E  E   
---------9------------9-----|---------9------------9-----|
--------10-----------10-----|--------10-----------10-----|
--------11-----------11-----|--------11-----------11-----|
----------------------------|----------------------------|
----------------------------|----------------------------|
----------------------------|----------------------------|

                  E  E   E  E  E  E   E  E   
-------|-------|---------9------------9-----|
-------|-------|--------10-----------10-----|
-------|-------|--------11-----------11-----|
-------|-------|----------------------------|
-------|-------|----------------------------|
-------|-------|----------------------------|

  E  E   E  E  E  E   E  E                   
---------9------------9-----|-------|-------|
--------10-----------10-----|-------|-------|
--------11-----------11-----|-------|-------|
----------------------------|-------|-------|
----------------------------|-------|-------|
----------------------------|-------|-------|

  E  E   E  E  E  E   E  E     E  E   E  E  E  E   E  E         
---------9------------9-----|---------9------------9-----|-----|
--------10-----------10-----|--------10-----------10-----|-----|
--------11-----------11-----|--------11-----------11-----|-----|
----------------------------|----------------------------|-----|
----------------------------|----------------------------|-----|
----------------------------|----------------------------|-----|

-----|-----|-----|-----|-----|-----|-----|
-----|-----|-----|-----|-----|-----|-----|
-----|-----|-----|-----|-----|-----|-----|
-----|-----|-----|-----|-----|-----|-----|
-----|-----|-----|-----|-----|-----|-----|
-----|-----|-----|-----|-----|-----|-----|

   E  E   E  E   E  E   E  E      E  E   E  E   E   E   E   E   
---9------9------9------9-----|---9------9------9--12--12--12--|
--10-----10-----10-----10-----|--10-----10-----10--10--10--10--|
--11-----11-----11-----11-----|--11-----11-----11--11--11--11--|
------------------------------|--------------------------------|
------------------------------|--------------------------------|
------------------------------|--------------------------------|

  E  E  E  E  E  E  E  E     E  E  E  E  E  E  E  E   
--2-----2-----2--2--2--2--|--2-----2-----2--2--2--2--|
--3-----3-----3--3--3--3--|--3-----3-----3--3--3--3--|
--4-----4-----4--4--4--4--|--4-----4-----
Colaboração e revisão:
  • Danilo Dutra
1.387 exibições
    • ½ Tom
    • A
    • Bb
    • B
    • C
    • Db
    • D
    • Eb
    • E
    • F
    • F#
    • G
    • Ab
  • Adicionar à lista

    0 comentários

    Ver todos os comentários

    Conseguiu tocar?

    0 Tocaram 0 Ainda não

    Grave um vídeo tocando Bones e nos envie!

    00:00 / 00:00
    outros vídeos desta música
    repetir qualidade Automático
    Outros vídeos desta música
    00:00 / 00:00
    Automático

    Cifra Club Pro

    Aproveite o Cifra Club com benefícios exclusivos e sem anúncios
    Cifra Club Pro
    Aproveite o Cifra Club com benefícios exclusivos e sem anúncios
    OK