Cifra Club

Aprenda

Bullets

Editors

Cifra: Principal (violão e guitarra)
tom: E
      E   E   E   E   E   E   E   E   E   E   E   E   E   E   E  
E||--19--19--19--21--21--21--16--16--17--17--17--16--16--16--17--
B||--------------------------------------------------------------
G||--------------------------------------------------------------
D||--------------------------------------------------------------
A||--------------------------------------------------------------
E||--------------------------------------------------------------

   E   E   E   E   E   E   E   E   E   E   E   E   E   E   E   E 
--19--19--19--21--21--21--16--16--17--17--17--16--16--16--17--17-
-----------------------------------------------------------------
-----------------------------------------------------------------
-----------------------------------------------------------------
-----------------------------------------------------------------
-----------------------------------------------------------------

   E   E   E   E   E   E   E   E   E   E   E   E   E   E   E   E 
--19--19--19--21--21--21--16--16--17--17--17--16--16--16--17--17-
-----------------------------------------------------------------
-----------------------------------------------------------------
-----------------------------------------------------------------
-----------------------------------------------------------------
-----------------------------------------------------------------

   E   E   E   E   E   E   E   E   E   E   E   E   E   E   E   E 
--19--19--19--21--21--21--16--16--17--17--17--16--16--16--17--17-
-----------------------------------------------------------------
-----------------------------------------------------------------
-----------------------------------------------------------------
-----------------------------------------------------------------
-----------------------------------------------------------------

-----|-----|-----|-----|
-----|-----|-----|-----|
-----|-----|-----|-----|
-----|-----|-----|-----|
-----|-----|-----|-----|
-----|-----|-----|-----|

  Q    Q    Q    Q    Q    Q    Q    Q     
------------------------------------------|
--7----7----7----7----7----7----7----7----|
--4----4----4----4----4----4----4----4----|
------------------------------------------|
------------------------------------------|
------------------------------------------|

  Q    Q    Q    Q    Q    Q    Q    Q     
------------------------------------------|
--7----7----7----7----7----7----7----7----|
--4----4----4----4----4----4----4----4----|
------------------------------------------|
------------------------------------------|
------------------------------------------|

  Q    Q    Q    Q    Q    Q    Q    Q     
------------------------------------------|
--7----7----7----7----7----7----7----7----|
--4----4----4----4----4----4----4----4----|
------------------------------------------|
------------------------------------------|
------------------------------------------|

  Q    Q    Q    Q    Q    Q    Q    Q     
------------------------------------------|
--7----7----7----7----7----7----7----7----|
--4----4----4----4----4----4----4----4----|
------------------------------------------|
------------------------------------------|
------------------------------------------|

   E   E   E   E   E   E   E   E   E   E   E   E   E   E   E   E 
--19--19--19--21--21--21--16--16--17--17--17--16--16--16--17--17-
-----------------------------------------------------------------
-----------------------------------------------------------------
-----------------------------------------------------------------
-----------------------------------------------------------------
-----------------------------------------------------------------

   E   E   E   E   E   E   E   E   E   E   E   E   E   E   E   E 
--19--19--19--21--21--21--16--16--17--17--17--16--16--16--17--17-
-----------------------------------------------------------------
-----------------------------------------------------------------
-----------------------------------------------------------------
-----------------------------------------------------------------
-----------------------------------------------------------------

   E   E   E   E   E   E   E   E   E   E   E   E   E   E   E   E 
--19--19--19--21--21--21--16--16--17--17--17--16--16--16--17--17-
-----------------------------------------------------------------
-----------------------------------------------------------------
-----------------------------------------------------------------
-----------------------------------------------------------------
-----------------------------------------------------------------

   E   E   E   E   E   E   E   E   E   E   E   E   E   E   E   E 
--19--19--19--21--21--21--16--16--17--17--17--16--16--16--17--17-
-----------------------------------------------------------------
-----------------------------------------------------------------
-----------------------------------------------------------------
-----------------------------------------------------------------
-----------------------------------------------------------------

  Q    Q    Q    Q    Q    Q    Q    Q     
------------------------------------------|
--7----7----7----7----7----7----7----7----|
--4----4----4----4----4----4----4----4----|
------------------------------------------|
------------------------------------------|
------------------------------------------|

  Q    Q    Q    Q    Q    Q    Q    Q     
------------------------------------------|
--7----7----7----7----7----7----7----7----|
--4----4----4----4----4----4----4----4----|
------------------------------------------|
------------------------------------------|
------------------------------------------|

  Q    Q    Q    Q    Q    Q    Q    Q     
------------------------------------------|
--7----7----7----7----7----7----7----7----|
--4----4----4----4----4----4----4----4----|
------------------------------------------|
------------------------------------------|
------------------------------------------|

  Q    Q    Q    Q    Q    Q    Q    Q     
------------------------------------------|
--7----7----7----7----7----7----7----7----|
--4----4----4----4----4----4----4----4----|
------------------------------------------|
------------------------------------------|
------------------------------------------|

  Q    Q    Q    Q    Q    Q    Q    Q     
------------------------------------------|
--7----7----7----7----7----7----7----7----|
--4----4----4----4----4----4----4----4----|
------------------------------------------|
------------------------------------------|
------------------------------------------|

  Q    Q    Q    Q    Q    Q    Q    Q     
------------------------------------------|
--7----7----7----7----7----7----7----7----|
--4----4----4----4----4----4----4----4----|
------------------------------------------|
------------------------------------------|
------------------------------------------|

  Q    Q    Q    Q    Q    Q    Q    Q     
------------------------------------------|
--7----7----7----7----7----7----7----7----|
--4----4----4----4----4----4----4----4----|
------------------------------------------|
------------------------------------------|
------------------------------------------|

  Q    Q    Q    Q    Q    Q    Q    Q     
------------------------------------------|
--7----7----7----7----7----7----7----7----|
--4----4----4----4----4----4----4----4----|
------------------------------------------|
------------------------------------------|
------------------------------------------|

   E   E   E   E   E   E   E   E   E   E   E   E   E   E   E   E 
--19--19--19--21--21--21--16--16--17--17--17--16--16--16--17--17-
-----------------------------------------------------------------
-----------------------------------------------------------------
-----------------------------------------------------------------
-----------------------------------------------------------------
-----------------------------------------------------------------

   E   E   E   E   E   E   E   E   E   E   E   E   E   E   E   E 
--19--19--19--21--21--21--16--16--17--17--17--16--16--16--17--17-
-----------------------------------------------------------------
-----------------------------------------------------------------
-----------------------------------------------------------------
-----------------------------------------------------------------
-----------------------------------------------------------------

   E   E   E   E   E   E   E   E   E   E   E   E   E   E   E   E 
--19--19--19--21--21--21--16--16--17--17--17--16--16--16--17--17-
-----------------------------------------------------------------
-----------------------------------------------------------------
-----------------------------------------------------------------
-----------------------------------------------------------------
-----------------------------------------------------------------

   E   E   E   E   E   E   E   E   E   E   E   E   E   E   E   E 
--19--19--19--21--21--21--16--16--17--17--17--16--16--16--17--17-
-----------------------------------------------------------------
-----------------------------------------------------------------
-----------------------------------------------------------------
-----------------------------------------------------------------
-----------------------------------------------------------------

  E  E  E  E  E  E  E  E  E   E  E   E  E   E  E   E   
-----7-----7-----7-----7-----11-----11-----11-----11--|
--9-----9-----9-----9-----9------9------9------9------|
------------------------------------------------------|
------------------------------------------------------|
------------------------------------------------------|
------------------------------------------------------|

  E  E  E  E  E  E  E  E  E   E  E   E  E   E  E   E   
-----7-----7-----7-----7-----11-----11-----11-----11--|
--9-----9-----9-----9-----9------9------9------9------|
------------------------------------------------------|
------------------------------------------------------|
------------------------------------------------------|
------------------------------------------------------|

  E  E  E  E  E  E  E  E  E   E  E   E  E   E  E   E   
-----7-----7-----7-----7-----11-----11-----11-----11--|
--9-----9-----9-----9-----9------9------9------9------|
------------------------------------------------------|
------------------------------------------------------|
------------------------------------------------------|
------------------------------------------------------|

  E  E  E  E  E  E  E  E  E   E  E   E  E   E  E   E   
-----7-----7-----7-----7-----11-----11-----11-----11--|
--9-----9-----9-----9-----9------9------9------9------|
------------------------------------------------------|
------------------------------------------------------|
------------------------------------------------------|
------------------------------------------------------|

  E  E  E  E  E  E  E  E  E   E  E   E  E   E  E   E   
-----7-----7-----7-----7-----11-----11-----11-----11--|
--9-----9-----9-----9-----9------9------9------9------|
------------------------------------------------------|
------------------------------------------------------|
------------------------------------------------------|
------------------------------------------------------|

  E  E  E  E  E  E  E  E  E   E  E   E  E   E  E   E   
-----7-----7-----7-----7-----11-----11-----11-----11--|
--9-----9-----9-----9-----9------9------9------9------|
------------------------------------------------------|
------------------------------------------------------|
------------------------------------------------------|
------------------------------------------------------|

  Q    Q    Q    Q    Q    Q    Q    Q     
------------------------------------------|
--7----7----7----7----7----7----7----7----|
--4----4----4----4----4----4----4----4----|
------------------------------------------|
------------------------------------------|
------------------------------------------|

  Q    Q    Q    Q    Q    Q    Q    Q     
------------------------------------------|
--7----7----7----7----7----7----7----7----|
--4----4----4----4----4----4----4----4----|
------------------------------------------|
------------------------------------------|
------------------------------------------|

  Q    Q    Q    Q    Q    Q    Q    Q     
------------------------------------------|
--7----7----7----7----7----7----7----7----|
--4----4----4----4----4----4----4----4----|
------------------------------------------|
------------------------------------------|
------------------------------------------|

  Q    Q    Q    Q    Q    Q    Q    Q     
------------------------------------------|
--7----7----7----7----7----7----7----7----|
--4----4----4----4----4----4----4----4----|
------------------------------------------|
------------------------------------------|
------------------------------------------|

   E   E   E   E   E   E   E   E   E   E   E   E   E   E   E   E 
--19--19--19--21--21--21--16--16--17--17--17--16--16--16--17--17-
-----------------------------------------------------------------
-----------------------------------------------------------------
-----------------------------------------------------------------
-----------------------------------------------------------------
-----------------------------------------------------------------

   E   E   E   E   E   E   E   E   E   E   E   E   E   E   E   E 
--19--19--19--21--21--21--16--16--17--17--17--16--16--16--17--17-
-----------------------------------------------------------------
-----------------------------------------------------------------
-----------------------------------------------------------------
-----------------------------------------------------------------
-----------------------------------------------------------------

   E   E   E   E   E   E   E   E   E   E   E   E   E   E   E   E 
--19--19--19--21--21--21--16--16--17--17--17--16--16--16--17--17-
-----------------------------------------------------------------
-----------------------------------------------------------------
-----------------------------------------------------------------
-----------------------------------------------------------------
-----------------------------------------------------------------

   E   E   E   E   E   E   E   E   E   E   E   E   E   E   E   E 
--19--19--19--21--21--21--16--16--17--17--17--16--16--16--17--17-
-----------------------------------------------------------------
-----------------------------------------------------------------
-----------------------------------------------------------------
-----------------------------------------------------------------
-----------------------------------------------------------------

   E   E   E   E   E   E   E   E   E   E   E   E   E   E   E   E 
--19--19--19--21--21--21--16--16--17--17--17--16--16--16--17--17-
-----------------------------------------------------------------
-----------------------------------------------------------------
-----------------------------------------------------------------
-----------------------------------------------------------------
-----------------------------------------------------------------

   E   E   E   E   E   E   E   E   E   E   E   E   E   E   E   E 
--19--19--19--21--21--21--16--16--17--17--17--16--16--16--17--17-
-----------------------------------------------------------------
-----------------------------------------------------------------
-----------------------------------------------------------------
-----------------------------------------------------------------
-----------------------------------------------------------------

   E   E   E   E   E   E   E   E   E   E   E   E   E   E   E   E 
--19--19--19--21--21--21--16--16--17--17--17--16--16--16--17--17-
-----------------------------------------------------------------
-----------------------------------------------------------------
-----------------------------------------------------------------
-----------------------------------------------------------------
-----------------------------------------------------------------

   E   E   E   E   E   E   E   E   E   E   E   E   E   E   E   E 
--19--19--19--21--21--21--16--16--17--17--17--16--16--16--17--17-
-----------------------------------------------------------------
-----------------------------------------------------------------
-----------------------------------------------------------------
-----------------------------------------------------------------
-----------------------------------------------------------------

   E   E   E   E   E   E   E   E   E   E   E   E   E   E   E   E 
--19--19--19--21--21--21--16--16--17--17--17--16--16--16--17--17-
-----------------------------------------------------------------
-----------------------------------------------------------------
-----------------------------------------------------------------
-----------------------------------------------------------------
-----------------------------------------------------------------

   E   E   E   E   E   E   E   E   E   E   E   E   E   E   E   E 
--19--19--19--21--21--21--16--16--17--17--17--16--16--16--17--17-
-----------------------------------------------------------------
-----------------------------------------------------------------
-----------------------------------------------------------------
-----------------------------------------------------------------
-----------------------------------------------------------------

   E   E   E   E   E   E   E   E   E   E   E   E   E   E   E   E 
--19--19--19--21--21--21--16--16--17--17--17--16--16--16--17--17-
-----------------------------------------------------------------
-----------------------------------------------------------------
-----------------------------------------------------------------
-----------------------------------------------------------------
-----------------------------------------------------------------

   E   E   E   E   E   E   E   E   E   E   E   E   E   E   E   E 
--19--19--19--21--21--21--16--16--17--17--17--16--16--16--17--17-
-----------------------------------------------------------------
-----------------------------------------------------------------
-----------------------------------------------------------------
-----------------------------------------------------------------
-----------------------------------------------------------------

Tom Smith(Guitarra 2)

     E  E  E   E   E   E  E  E  E  E  E  E  E  E  E  E   
E||-----------------------------------------------------|
B||-----------------------------------------------------|
G||-----------------------------------------------------|
D||-----------------------------------------------------|
A||--9--9--9--11--11--11--6--6--7--7--7--6--6--6--7--7--|
E||--7--7--7---9---9---9--4--4--5--5--5--4--4--4--5--5--|

  E  E  E   E   E   E  E  E  E  E  E  E  E  E  E  E   
-----------------------------------------------------|
-----------------------------------------------------|
-----------------------------------------------------|
-----------------------------------------------------|
--9--9--9--11--11--11--6--6--7--7--7--6--6--6--7--7--|
--7--7--7---9---9---9--4--4--5--5--5--4--4--4--5--5--|

  E  E  E   E   E   E  E  E  E  E  E  E  E  E  E  E   
-----------------------------------------------------|
-----------------------------------------------------|
-----------------------------------------------------|
-----------------------------------------------------|
--9--9--9--11--11--11--6--6--7--7--7--6--6--6--7--7--|
--7--7--7---9---9---9--4--4--5--5--5--4--4--4--5--5--|

  E  E  E   E   E   E  E  E  E  E  E  E  E  E  E  E         
-----------------------------------------------------|-----|
-----------------------------------------------------|-----|
-----------------------------------------------------|-----|
-----------------------------------------------------|-----|
--9--9--9--11--11--11--6--6--7--7--7--6--6--6--7--7--|-----|
--7--7--7---9---9---9--4--4--5--5--5--4--4--4--5--5--|-----|

-----|-----|-----|-----|-----|-----|-----|
-----|-----|-----|-----|-----|-----|-----|
-----|-----|-----|-----|-----|-----|-----|
-----|-----|-----|-----|-----|-----|-----|
-----|-----|-----|-----|-----|-----|-----|
-----|-----|-----|-----|-----|-----|-----|

  E  E  E   E   E   E  E  E  E  E  E  E  E  E  E  E   
-----------------------------------------------------|
-----------------------------------------------------|
-----------------------------------------------------|
-----------------------------------------------------|
--9--9--9--11--11--11--6--6--7--7--7--6--6--6--7--7--|
--7--7--7---9---9---9--4--4--5--5--5--4--4--4--5--5--|

  E  E  E   E   E   E  E  E  E  E  E  E  E  E  E  E   
-----------------------------------------------------|
-----------------------------------------------------|
-----------------------------------------------------|
-----------------------------------------------------|
--9--9--9--11--11--11--6--6--7--7--7--6--6--6--7--7--|
--7--7--7---9---9---9--4--4--5--5--5--4--4--4--5--5--|

  E  E  E   E   E   E  E  E  E  E  E  E  E  E  E  E   
-----------------------------------------------------|
-----------------------------------------------------|
-----------------------------------------------------|
-----------------------------------------------------|
--9--9--9--11--11--11--6--6--7--7--7--6--6--6--7--7--|
--7--7--7---9---9---9--4--4--5--5--5--4--4--4--5--5--|

  E  E  E   E   E   E  E  E  E  E  E  E  E  E  E  E         
-----------------------------------------------------|-----|
-----------------------------------------------------|-----|
-----------------------------------------------------|-----|
-----------------------------------------------------|-----|
--9--9--9--11--11--11--6--6--7--7--7--6--6--6--7--7--|-----|
--7--7--7---9---9---9--4--4--5--5--5--4--4--4--5--5--|-----|

-----|-----|-----|
-----|-----|-----|
-----|-----|-----|
-----|-----|-----|
-----|-----|-----|
-----|-----|-----|

  E  E  E  E  E  E   E   E   E   E   E   E   E   E   E   E   
------------------------------------------------------------|
------------------------------------------------------------|
------------------------------------------------------------|
--9--9--9--9--9--9--11--11--11--11--11--11--11--11--11--11--|
------------------------------------------------------------|
------------------------------------------------------------|

  E  E  E  E  E  E  E  E  E  E  E  E  E  E  E  E   
--------------------------------------------------|
--------------------------------------------------|
--------------------------------------------------|
--6--6--6--7--7--7--7--7--6--6--6--7--7--7--7--7--|
--------------------------------------------------|
--------------------------------------------------|

  E  E  E  E  E  E   E   E   E   E   E   E   E   E   E   E   
------------------------------------------------------------|
------------------------------------------------------------|
------------------------------------------------------------|
--9--9--9--9--9--9--11--11--11--11--11--11--11--11--11--11--|
------------------------------------------------------------|
------------------------------------------------------------|

  E  E  E  E  E  E  E  E  E  E  E  E  E  E  E  E   
--------------------------------------------------|
--------------------------------------------------|
--------------------------------------------------|
--6--6--6--7--7--7--7--7--6--6--6--7--7--7--7--7--|
--------------------------------------------------|
--------------------------------------------------|

  E  E  E   E   E   E  E  E  E  E  E  E  E  E  E  E   
-----------------------------------------------------|
-----------------------------------------------------|
-----------------------------------------------------|
-----------------------------------------------------|
--9--9--9--11--11--11--6--6--7--7--7--6--6--6--7--7--|
--7--7--7---9---9---9--4--4--5--5--5--4--4--4--5--5--|

  E  E  E   E   E   E  E  E  E  E  E  E  E  E  E  E   
-----------------------------------------------------|
-----------------------------------------------------|
-----------------------------------------------------|
-----------------------------------------------------|
--9--9--9--11--11--11--6--6--7--7--7--6--6--6--7--7--|
--7--7--7---9---9---9--4--4--5--5--5--4--4--4--5--5--|

  E  E  E   E   E   E  E  E  E  E  E  E  E  E  E  E   
-----------------------------------------------------|
-----------------------------------------------------|
-----------------------------------------------------|
-----------------------------------------------------|
--9--9--9--11--11--11--6--6--7--7--7--6--6--6--7--7--|
--7--7--7---9---9---9--4--4--5--5--5--4--4--4--5--5--|

  E  E  E   E   E   E  E  E  E  E  E  E  E  E  E  E         
-----------------------------------------------------|-----|
-----------------------------------------------------|-----|
-----------------------------------------------------|-----|
-----------------------------------------------------|-----|
--9--9--9--11--11--11--6--6--7--7--7--6--6--6--7--7--|-----|
--7--7--7---9---9---9--4--4--5--5--5--4--4--4--5--5--|-----|

-----|-----|-----|-----|-----|-----|-----|-----|-----|
-----|-----|-----|-----|-----|-----|-----|-----|-----|
-----|-----|-----|-----|-----|-----|-----|-----|-----|
-----|-----|-----|-----|-----|-----|-----|-----|-----|
-----|-----|-----|-----|-----|-----|-----|-----|-----|
-----|-----|-----|-----|-----|-----|-----|-----|-----|

  E  E  E   E   E   E  E  E  E  E  E  E  E  E  E  E   
-----------------------------------------------------|
-----------------------------------------------------|
-----------------------------------------------------|
-----------------------------------------------------|
--9--9--9--11--11--11--6--6--7--7--7--6--6--6--7--7--|
--7--7--7---9---9---9--4--4--5--5--5--4--4--4--5--5--|

  E  E  E   E   E   E  E  E  E  E  E  E  E  E  E  E   
-----------------------------------------------------|
-----------------------------------------------------|
-----------------------------------------------------|
-----------------------------------------------------|
--9--9--9--11--11--11--6--6--7--7--7--6--6--6--7--7--|
--7--7--7---9---9---9--4--4--5--5--5--4--4--4--5--5--|

  E  E  E   E   E   E  E  E  E  E  E  E  E  E  E  E   
-----------------------------------------------------|
-----------------------------------------------------|
-----------------------------------------------------|
-----------------------------------------------------|
--9--9--9--11--11--11--6--6--7--7--7--6--6--6--7--7--|
--7--7--7---9---9---9--4--4--5--5--5--4--4--4--5--5--|

  E  E  E   E   E   E  E  E  E  E  E  E  E  E  E  E   
-----------------------------------------------------|
-----------------------------------------------------|
-----------------------------------------------------|
-----------------------------------------------------|
--9--9--9--11--11--11--6--6--7--7--7--6--6--6--7--7--|
--7--7--7---9---9---9--4--4--5--5--5--4--4--4--5--5--|

  E  E  E   E   E   E  E  E  E  E  E  E  E  E  E  E   
-----------------------------------------------------|
-----------------------------------------------------|
-----------------------------------------------------|
-----------------------------------------------------|
--9--9--9--11--11--11--6--6--7--7--7--6--6--6--7--7--|
--7--7--7---9---9---9--4--4--5--5--5--4--4--4--5--5--|

  E  E  E   E   E   E  E  E  E  E  E  E  E  E  E  E   
-----------------------------------------------------|
-----------------------------------------------------|
-----------------------------------------------------|
-----------------------------------------------------|
--9--9--9--11--11--11--6--6--7--7--7--6--6--6--7--7--|
--7--7--7---9---9---9--4--4--5--5--5--4--4--4--5--5--|

  E  E  E   E   E   E  E  E  E  E  E  E  E  E  E  E   
-----------------------------------------------------|
-----------------------------------------------------|
-----------------------------------------------------|
-----------------------------------------------------|
--9--9--9--11--11--11--6--6--7--7--7--6--6--6--7--7--|
--7--7--7---9---9---9--4--4--5--5--5--4--4--4--5--5--|

  E  E  E   E   E   E  E  E  E  E  E  E  E  E  E  E         
-----------------------------------------------------|-----|
-----------------------------------------------------|-----|
-----------------------------------------------------|-----|
-----------------------------------------------------|-----|
--9--9--9--11--11--11--6--6--7--7--7--6--6--6--7--7--|-----|
--7--7--7---9---9---9--4--4--5--5--5--4--4--4--5--5--|-----|

-----|-----|-----||
-----|-----|-----||
-----|-----|-----||
-----|-----|-----||
-----|-----|-----||
-----|-----|-----||

Composição de Chris Urbanowicz / Ed Lay / Russell Leetch / Tom Smith
Colaboração e revisão:
  • Danilo Dutra
1.064 exibições
    • ½ Tom
    • A
    • Bb
    • B
    • C
    • Db
    • D
    • Eb
    • E
    • F
    • F#
    • G
    • Ab
  • Adicionar à lista

    0 comentários

    Ver todos os comentários

    Conseguiu tocar?

    0 Tocaram 0 Ainda não

    Grave um vídeo tocando Bullets e nos envie!

    00:00 / 00:00
    outros vídeos desta música
    repetir qualidade Automático
    Outros vídeos desta música
    00:00 / 00:00
    Automático

    Cifra Club Pro

    Aproveite o Cifra Club com benefícios exclusivos e sem anúncios
    Cifra Club Pro
    Aproveite o Cifra Club com benefícios exclusivos e sem anúncios
    OK