Cifra Club

Aprenda

Fall

Editors

Cifra: Principal (violão e guitarra)
tom: C
Chris Urbanowicks(Guitarra 1)

E||-------|-------|-------|-------|
B||-------|-------|-------|-------|
G||-------|-------|-------|-------|
D||-------|-------|-------|-------|
A||-------|-------|-------|-------|
E||-------|-------|-------|-------|

   TP  TP  TP  TP  TP  TP  TP  TP  
   E   E   E   E   E   E   E   E   
--10--10--10--10--10--10--10--10--|
----------------------------------|
----------------------------------|
----------------------------------|
----------------------------------|
----------------------------------|

   TP  TP  TP  TP  TP  TP  TP  TP                          
   E   E   E   E   E   E   E   E      Q    E  H        E   
--10--10--10--10--10--10--10--10--|-----------------------|
----------------------------------|-----------------------|
----------------------------------|--11----L--9--------L--|
----------------------------------|-----------------------|
----------------------------------|-----------------------|
----------------------------------|-----------------------|

                       TP  TP  TP  TP  TP  TP  TP  TP  
  W                    E   E   E   E   E   E   E   E   
-------------------|--10--10--10--10--10--10--10--10--|
-------------------|----------------------------------|
--L----------------|----------------------------------|
-------------------|----------------------------------|
-------------------|----------------------------------|
-------------------|----------------------------------|

   TP  TP  TP  TP  TP  TP  TP  TP                          
   E   E   E   E   E   E   E   E      Q    E  H        E   
--10--10--10--10--10--10--10--10--|-----------------------|
----------------------------------|-----------------------|
----------------------------------|--11----L--9--------L--|
----------------------------------|-----------------------|
----------------------------------|-----------------------|
----------------------------------|-----------------------|

  W                                                         
-------------------|-------------------|-------------------|
-------------------|-------------------|-------------------|
--L----------------|-------------------|-------------------|
-------------------|-------------------|-------------------|
-------------------|-------------------|-------------------|
-------------------|-------------------|-------------------|

   TP  TP  TP  TP  TP  TP  TP  TP  
   E   E   E   E   E   E   E   E   
--10--10--10--10--10--10--10--10--|
----------------------------------|
----------------------------------|
----------------------------------|
----------------------------------|
----------------------------------|

   TP  TP  TP  TP  TP  TP  TP  TP                          
   E   E   E   E   E   E   E   E      Q    E  H        E   
--10--10--10--10--10--10--10--10--|-----------------------|
----------------------------------|-----------------------|
----------------------------------|--11----L--9--------L--|
----------------------------------|-----------------------|
----------------------------------|-----------------------|
----------------------------------|-----------------------|

                       TP  TP  TP  TP  TP  TP  TP  TP  
  W                    E   E   E   E   E   E   E   E   
-------------------|--10--10--10--10--10--10--10--10--|
-------------------|----------------------------------|
--L----------------|----------------------------------|
-------------------|----------------------------------|
-------------------|----------------------------------|
-------------------|----------------------------------|

   TP  TP  TP  TP  TP  TP  TP  TP                          
   E   E   E   E   E   E   E   E      Q    E  H        E   
--10--10--10--10--10--10--10--10--|-----------------------|
----------------------------------|-----------------------|
----------------------------------|--11----L--9--------L--|
----------------------------------|-----------------------|
----------------------------------|-----------------------|
----------------------------------|-----------------------|

  W                   E  E  E  E  E  E  E  E   
-------------------|--7--7--7--7--7--7--7--7--|
-------------------|--5--5--5--5--5--5--5--5--|
--L----------------|--------------------------|
-------------------|--------------------------|
-------------------|--------------------------|
-------------------|--------------------------|

  E  E  E  E  E  E  E  E     E  E  E  E  E  E  E  E   
--7--7--7--7--7--7--7--7--|--7--7--7--7--7--7--7--7--|
--5--5--5--5--5--5--5--5--|--5--5--5--5--5--5--5--5--|
--------------------------|--------------------------|
--------------------------|--------------------------|
--------------------------|--------------------------|
--------------------------|--------------------------|

  E  E  E  E  E  E  E  E     E  E  E  E  E  E  E  E   
--7--7--7--7--7--7--7--7--|--7--7--7--7--7--7--7--7--|
--5--5--5--5--5--5--5--5--|--5--5--5--5--5--5--5--5--|
--------------------------|--------------------------|
--------------------------|--------------------------|
--------------------------|--------------------------|
--------------------------|--------------------------|

  E  E  E  E  E  E  E  E     E  E  E  E  E  E  E  E   
--7--7--7--7--7--7--7--7--|--7--7--7--7--7--7--7--7--|
--5--5--5--5--5--5--5--5--|--5--5--5--5--5--5--5--5--|
--------------------------|--------------------------|
--------------------------|--------------------------|
--------------------------|--------------------------|
--------------------------|--------------------------|

  E  E  E  E  E  E  E  E     E  E  E  E  E  E  E  E   
--7--7--7--7--7--7--7--7--|--7--7--7--7--7--7--7--7--|
--5--5--5--5--5--5--5--5--|--5--5--5--5--5--5--5--5--|
--------------------------|--------------------------|
--------------------------|--------------------------|
--------------------------|--------------------------|
--------------------------|--------------------------|

  E  E  E  E  E  E  E  E     W                 
--7--7--7--7--7--7--7--7--|--7----------------|
--5--5--5--5--5--5--5--5--|--5----------------|
--------------------------|-------------------|
--------------------------|-------------------|
--------------------------|-------------------|
--------------------------|-------------------|

  W                                                         
--L----------------|-------------------|-------------------|
--L----------------|-------------------|-------------------|
-------------------|-------------------|-------------------|
-------------------|-------------------|-------------------|
-------------------|-------------------|-------------------|
-------------------|-------------------|-------------------|

-------------------|-------------------|
-------------------|-------------------|
-------------------|-------------------|
-------------------|-------------------|
-------------------|-------------------|
-------------------|-------------------|

   TP  TP  TP  TP  TP  TP  TP  TP  
   E   E   E   E   E   E   E   E   
--10--10--10--10--10--10--10--10--|
----------------------------------|
----------------------------------|
----------------------------------|
----------------------------------|
----------------------------------|

   TP  TP  TP  TP  TP  TP  TP  TP                          
   E   E   E   E   E   E   E   E      Q    E  H        E   
--10--10--10--10--10--10--10--10--|-----------------------|
----------------------------------|-----------------------|
----------------------------------|--11----L--9--------L--|
----------------------------------|-----------------------|
----------------------------------|-----------------------|
----------------------------------|-----------------------|

                       TP  TP  TP  TP  TP  TP  TP  TP  
  W                    E   E   E   E   E   E   E   E   
-------------------|--10--10--10--10--10--10--10--10--|
-------------------|----------------------------------|
--L----------------|----------------------------------|
-------------------|----------------------------------|
-------------------|----------------------------------|
-------------------|----------------------------------|

   TP  TP  TP  TP  TP  TP  TP  TP                          
   E   E   E   E   E   E   E   E      Q    E  H        E   
--10--10--10--10--10--10--10--10--|-----------------------|
----------------------------------|-----------------------|
----------------------------------|--11----L--9--------L--|
----------------------------------|-----------------------|
----------------------------------|-----------------------|
----------------------------------|-----------------------|

  W                                                         
-------------------|-------------------|-------------------|
-------------------|-------------------|-------------------|
--L----------------|-------------------|-------------------|
-------------------|-------------------|-------------------|
-------------------|-------------------|-------------------|
-------------------|-------------------|-------------------|

  E  E  E  E  E  E  E  E     E  E  E  E  E  E  E  E   
--7--7--7--7--7--7--7--7--|--7--7--7--7--7--7--7--7--|
--5--5--5--5--5--5--5--5--|--5--5--5--5--5--5--5--5--|
--------------------------|--------------------------|
--------------------------|--------------------------|
--------------------------|--------------------------|
--------------------------|--------------------------|

  E  E  E  E  E  E  E  E     E  E  E  E  E  E  E  E   
--7--7--7--7--7--7--7--7--|--7--7--7--7--7--7--7--7--|
--5--5--5--5--5--5--5--5--|--5--5--5--5--5--5--5--5--|
--------------------------|--------------------------|
--------------------------|--------------------------|
--------------------------|--------------------------|
--------------------------|--------------------------|

  E  E  E  E  E  E  E  E     E  E  E  E  E  E  E  E   
--7--7--7--7--7--7--7--7--|--7--7--7--7--7--7--7--7--|
--5--5--5--5--5--5--5--5--|--5--5--5--5--5--5--5--5--|
--------------------------|--------------------------|
--------------------------|--------------------------|
--------------------------|--------------------------|
--------------------------|--------------------------|

  E  E  E  E  E  E  E  E     E  E  E  E  E  E  E  E   
--7--7--7--7--7--7--7--7--|--7--7--7--7--7--7--7--7--|
--5--5--5--5--5--5--5--5--|--5--5--5--5--5--5--5--5--|
--------------------------|--------------------------|
--------------------------|--------------------------|
--------------------------|--------------------------|
--------------------------|--------------------------|

  E  E  E  E  E  E  E  E     E  E  E  E  E  E  E  E   
--7--7--7--7--7--7--7--7--|--7--7--7--7--7--7--7--7--|
--5--5--5--5--5--5--5--5--|--5--5--5--5--5--5--5--5--|
--------------------------|--------------------------|
--------------------------|--------------------------|
--------------------------|--------------------------|
--------------------------|--------------------------|

  W                   W                                     
--7----------------|--L----------------|-------------------|
--5----------------|--L----------------|-------------------|
-------------------|-------------------|-------------------|
-------------------|-------------------|-------------------|
-------------------|-------------------|-------------------|
-------------------|-------------------|-------------------|

  >                                       >                 
  W                   W                   W                 
-------------------|-------------------|-------------------|
--7----------------|--L----------------|--5----------------|
-------------------|-------------------|-------------------|
-------------------|-------------------|-------------------|
-------------------|-------------------|-------------------|
-------------------|-------------------|-------------------|

                      >                                     
  W                   W                   W                 
-------------------|-------------------|-------------------|
--L----------------|--7----------------|--L----------------|
-------------------|-------------------|-------------------|
-------------------|-------------------|-------------------|
-------------------|-------------------|-------------------|
-------------------|-------------------|-------------------|

  >                                       >                 
  W                   W                   W                 
-------------------|-------------------|-------------------|
--5----------------|--L----------------|--7----------------|
-------------------|-------------------|-------------------|
-------------------|-------------------|-------------------|
-------------------|-------------------|-------------------|
-------------------|-------------------|-------------------|

                      >                                     
  W                   W                   W                 
-------------------|-------------------|-------------------|
--L----------------|--5----------------|--L----------------|
-------------------|-------------------|-------------------|
-------------------|-------------------|-------------------|
-------------------|-------------------|-------------------|
-------------------|-------------------|-------------------|

  >                                       >                 
  W                   W                   W                 
-------------------|-------------------|-------------------|
--7----------------|--L----------------|--5----------------|
-------------------|-------------------|-------------------|
-------------------|-------------------|-------------------|
-------------------|-------------------|-------------------|
-------------------|-------------------|-------------------|

                      TP       TP          
  W                   H        Q    E  E   
-------------------|----------------------|
--L----------------|--7--------7----L-----|
-------------------|-------------------9--|
-------------------|----------------------|
-------------------|----------------------|
-------------------|----------------------|

  TP       TP            TP       TP          
  H        Q    E  E     H        Q    E  E   
----------------------|----------------------|
--7--------7----L-----|--5--------5----L-----|
-------------------9--|-------------------7--|
----------------------|----------------------|
----------------------|----------------------|
----------------------|----------------------|

  TP       TP            TP       TP          
  H        Q    E  E     H        Q    E  E   
----------------------|----------------------|
--5--------5----L-----|--5--------5----L-----|
-------------------7--|-------------------7--|
----------------------|----------------------|
----------------------|----------------------|
----------------------|----------------------|

  TP       TP            TP       TP          
  H        Q    E  E     H        Q    E  E   
----------------------|----------------------|
--5--------5----L-----|--5--------5----L-----|
-------------------7--|-------------------7--|
----------------------|----------------------|
----------------------|----------------------|
----------------------|----------------------|

  TP       TP            TP                                    
  H        Q    E  E     W                   W                 
----------------------|-------------------|-------------------|
--5--------5----L-----|--7----------------|--L----------------|
-------------------7--|-------------------|-------------------|
----------------------|-------------------|-------------------|
----------------------|-------------------|-------------------|
----------------------|-------------------|-------------------|

  TP                                                        
  W                   W                   W                 
-------------------|-------------------|-------------------|
--5----------------|--L----------------|--7----------------|
-------------------|-------------------|-------------------|
-------------------|-------------------|-------------------|
-------------------|-------------------|-------------------|
-------------------|-------------------|-------------------|

  W                   W                   W                  
-------------------|-------------------|-------------------||
--L----------------|--5----------------|--L----------------||
-------------------|-------------------|-------------------||
-------------------|-------------------|-------------------||
-------------------|-------------------|-------------------||
-------------------|-------------------|-------------------||


Tom Smith(Guitarra 2)

     ^                                       ^                 
     W                   W                   W                 
E||-------------------|-------------------|-------------------|
B||-------------------|-------------------|-------------------|
G||--0----------------|--L----------------|--9----------------|
D||--2----------------|--L----------------|--9----------------|
A||--2----------------|--L----------------|--7----------------|
E||-------------------|-------------------|-------------------|


  W                                                         
-------------------|-------|-------|-------|-------|-------|
-------------------|-------|-------|-------|-------|-------|
--L----------------|-------|-------|-------|-------|-------|
--L----------------|-------|-------|-------|-------|-------|
--L----------------|-------|-------|-------|-------|-------|
-------------------|-------|-------|-------|-------|-------|

-------|-------|-------|-------|-------|-------|-------|-------|
-------|-------|-------|-------|-------|-------|-------|-------|
-------|-------|-------|-------|-------|-------|-------|-------|
-------|-------|-------|-------|-------|-------|-------|-------|
-------|-------|-------|-------|-------|-------|-------|-------|
-------|-------|-------|-------|-------|-------|-------|-------|

                          E  E  E  E  E  E  E  E   
-------|-------|-------|--------------------------|
-------|-------|-------|--1--1--1--1--1--1--1--1--|
-------|-------|-------|--------------------------|
-------|-------|-------|--2--2--2--2--2--2--2--2--|
-------|-------|-------|--3--3--3--3--3--3--3--3--|
-------|-------|-------|--------------------------|

  E  E  E  E  E  E  E  E     W                 
--------------------------|-------------------|
--1--1--1--1--1--1--1--1--|-------------------|
--------------------------|--0----------------|
--2--2--2--2--2--2--2--2--|--2----------------|
--3--3--3--3--3--3--3--3--|--2----------------|
--------------------------|-------------------|

  W                   E  E  E  E  E  E  E  E   
-------------------|--------------------------|
-------------------|--1--1--1--1--1--1--1--1--|
--L----------------|--------------------------|
--L----------------|--2--2--2--2--2--2--2--2--|
--L----------------|--3--3--3--3--3--3--3--3--|
-------------------|--------------------------|

  E  E  E  E  E  E  E  E     W                 
--------------------------|-------------------|
--1--1--1--1--1--1--1--1--|-------------------|
--------------------------|--0----------------|
--2--2--2--2--2--2--2--2--|--2----------------|
--3--3--3--3--3--3--3--3--|--2----------------|
--------------------------|-------------------|

  W                   E  E  E  E  E  E  E  E   
-------------------|--------------------------|
-------------------|--------------------------|
--L----------------|--0--0--0--0--0--0--0--0--|
--L----------------|--2--2--2--2--2--2--2--2--|
--L----------------|--2--2--2--2--2--2--2--2--|
-------------------|--------------------------|

  E  E  E  E  E  E  E  E     E  E  E  E  E  E  E  E   
--------------------------|--------------------------|
--------------------------|--1--1--1--1--1--1--1--1--|
--7--7--7--7--7--7--7--7--|--------------------------|
--7--7--7--7--7--7--7--7--|--2--2--2--2--2--2--2--2--|
--5--5--5--5--5--5--5--5--|--3--3--3--3--3--3--3--3--|
--------------------------|--------------------------|

  E  E  E  E  E  E  E  E     E  E  E  E  E  E  E  E   
--------------------------|--------------------------|
--1--1--1--1--1--1--1--1--|--------------------------|
--------------------------|--0--0--0--0--0--0--0--0--|
--2--2--2--2--2--2--2--2--|--2--2--2--2--2--2--2--2--|
--3--3--3--3--3--3--3--3--|--2--2--2--2--2--2--2--2--|
--------------------------|--------------------------|

  E  E  E  E  E  E  E  E     E  E  E  E  E  E  E  E   
--------------------------|--------------------------|
--------------------------|--1--1--1--1--1--1--1--1--|
--7--7--7--7--7--7--7--7--|--------------------------|
--7--7--7--7--7--7--7--7--|--2--2--2--2--2--2--2--2--|
--5--5--5--5--5--5--5--5--|--3--3--3--3--3--3--3--3--|
--------------------------|--------------------------|

  E  E  E  E  E  E  E  E     E  E  E  E  E  E  E  E   
--------------------------|--------------------------|
--1--1--1--1--1--1--1--1--|--------------------------|
--------------------------|--0--0--0--0--0--0--0--0--|
--2--2--2--2--2--2--2--2--|--2--2--2--2--2--2--2--2--|
--3--3--3--3--3--3--3--3--|--2--2--2--2--2--2--2--2--|
--------------------------|--------------------------|

  E  E  E  E  E  E  E  E     W                 
--------------------------|-------------------|
--------------------------|--1----------------|
--7--7--7--7--7--7--7--7--|-------------------|
--7--7--7--7--7--7--7--7--|--2----------------|
--5--5--5--5--5--5--5--5--|--3----------------|
--------------------------|-------------------|

  W                                                         
-------------------|-------------------|-------------------|
--L----------------|-------------------|-------------------|
-------------------|-------------------|-------------------|
--L----------------|-------------------|-------------------|
--L----------------|-------------------|-------------------|
-------------------|-------------------|-------------------|

-------------------|-------------------|
-------------------|-------------------|
-------------------|-------------------|
-------------------|-------------------|
-------------------|-------------------|
-------------------|-------------------|

  E  E  E  E  E  E  E  E     E  E  E  E  E  E  E  E   
--------------------------|--------------------------|
--1--1--1--1--1--1--1--1--|--1--1--1--1--1--1--1--1--|
--------------------------|--------------------------|
--2--2--2--2--2--2--2--2--|--2--2--2--2--2--2--2--2--|
--3--3--3--3--3--3--3--3--|--3--3--3--3--3--3--3--3--|
--------------------------|--------------------------|

  W                   W                 
-------------------|-------------------|
-------------------|-------------------|
--0----------------|--L----------------|
--2----------------|--L----------------|
--2----------------|--L----------------|
-------------------|-------------------|

  E  E  E  E  E  E  E  E     E  E  E  E  E  E  E  E   
--------------------------|--------------------------|
--1--1--1--1--1--1--1--1--|--1--1--1--1--1--1--1--1--|
--------------------------|--------------------------|
--2--2--2--2--2--2--2--2--|--2--2--2--2--2--2--2--2--|
--3--3--3--3--3--3--3--3--|--3--3--3--3--3--3--3--3--|
--------------------------|--------------------------|

  W                   W                                     
-------------------|-------------------|-------------------|
-------------------|-------------------|-------------------|
--0----------------|--L----------------|-------------------|
--2----------------|--L----------------|-------------------|
--2----------------|--L----------------|-------------------|
-------------------|-------------------|-------------------|

-------------------|-------------------|-------------------|
-------------------|-------------------|-------------------|
-------------------|-------------------|-------------------|
-------------------|-------------------|-------------------|
-------------------|-------------------|-------------------|
-------------------|-------------------|-------------------|

-------------------|-------------------|-------------------|
-------------------|-------------------|-------------------|
-------------------|-------------------|-------------------|
-------------------|-------------------|-------------------|
-------------------|-------------------|-------------------|
-------------------|-------------------|-------------------|

                      E  E  E  E  E  E  E  E   
-------------------|--------------------------|
-------------------|--------------------------|
-------------------|--0--0--0--0--0--0--0--0--|
-------------------|--2--2--2--2--2--2--2--2--|
-------------------|--2--2--2--2--2--2--2--2--|
-------------------|--------------------------|

  E  E  E  E  E  E  E  E     E  E  E  E  E  E  E  E   
--------------------------|--------------------------|
--------------------------|--1--1--1--1--1--1--1--1--|
--7--7--7--7--7--7--7--7--|--------------------------|
--7--7--7--7--7--7--7--7--|--2--2--2--2--2--2--2--2--|
--5--5--5--5--5--5--5--5--|--3--3--3--3--3--3--3--3--|
--------------------------|--------------------------|

  E  E  E  E  E  E  E  E     E  E  E  E  E  E  E  E   
--------------------------|--------------------------|
--1--1--1--1--1--1--1--1--|--------------------------|
--------------------------|--0--0--0--0--0--0--0--0--|
--2--2--2--2--2--2--2--2--|--2--2--2--2--2--2--2--2--|
--3--3--3--3--3--3--3--3--|--2--2--2--2--2--2--2--2--|
--------------------------|--------------------------|

  E  E  E  E  E  E  E  E     E  E  E  E  E  E  E  E   
--------------------------|--------------------------|
--------------------------|--1--1--1--1--1--1--1--1--|
--7--7--7--7--7--7--7--7--|--------------------------|
--7--7--7--7--7--7--7--7--|--2--2--2--2--2--2--2--2--|
--5--5--5--5--5--5--5--5--|--3--3--3--3--3--3--3--3--|
--------------------------|--------------------------|

  E  E  E  E  E  E  E  E     E  E  E  E  E  E  E  E   
--------------------------|--------------------------|
--1--1--1--1--1--1--1--1--|--------------------------|
--------------------------|--0--0--0--0--0--0--0--0--|
--2--2--2--2--2--2--2--2--|--2--2--2--2--2--2--2--2--|
--3--3--3--3--3--3--3--3--|--2--2--2--2--2--2--2--2--|
--------------------------|--------------------------|

  E  E  E  E  E  E  E  E     W                 
--------------------------|-------------------|
--------------------------|--1----------------|
--7--7--7--7--7--7--7--7--|-------------------|
--7--7--7--7--7--7--7--7--|--2----------------|
--5--5--5--5--5--5--5--5--|--3----------------|
--------------------------|-------------------|

  W                   E  E  E  E  E  E  E  E   
-------------------|--------------------------|
--L----------------|--------------------------|
-------------------|--0--0--0--0--0--0--0--0--|
--L----------------|--2--2--2--2--2--2--2--2--|
--L----------------|--2--2--2--2--2--2--2--2--|
-------------------|--------------------------|

  E  E  E  E  E  E  E  E     E  E  E  E  E  E  E  E   
--------------------------|--------------------------|
--------------------------|--------------------------|
--7--7--7--7--7--7--7--7--|--5--5--5--5--5--5--5--5--|
--7--7--7--7--7--7--7--7--|--5--5--5--5--5--5--5--5--|
--5--5--5--5--5--5--5--5--|--3--3--3--3--3--3--3--3--|
--------------------------|--------------------------|

  E  E  E  E  E  E  E  E     E  E  E  E  E  E  E  E   
--------------------------|--------------------------|
--------------------------|--------------------------|
--5--5--5--5--5--5--5--5--|--0--0--0--0--0--0--0--0--|
--5--5--5--5--5--5--5--5--|--2--2--2--2--2--2--2--2--|
--3--3--3--3--3--3--3--3--|--2--2--2--2--2--2--2--2--|
--------------------------|--------------------------|

  E  E  E  E  E  E  E  E     E  E  E  E  E  E  E  E   
--------------------------|--------------------------|
--------------------------|--------------------------|
--7--7--7--7--7--7--7--7--|--5--5--5--5--5--5--5--5--|
--7--7--7--7--7--7--7--7--|--5--5--5--5--5--5--5--5--|
--5--5--5--5--5--5--5--5--|--3--3--3--3--3--3--3--3--|
--------------------------|--------------------------|

  E  E  E  E  E  E  E  E     E  E  E  E  E  E  E  E   
--------------------------|--------------------------|
--------------------------|--------------------------|
--5--5--5--5--5--5--5--5--|--0--0--0--0--0--0--0--0--|
--5--5--5--5--5--5--5--5--|--2--2--2--2--2--2--2--2--|
--3--3--3--3--3--3--3--3--|--2--2--2--2--2--2--2--2--|
--------------------------|--------------------------|

  E  E  E  E  E  E  E  E     E  E  E  E  E  E  E  E   
--------------------------|--------------------------|
--------------------------|--------------------------|
--7--7--7--7--7--7--7--7--|--5--5--5--5--5--5--5--5--|
--7--7--7--7--7--7--7--7--|--5--5--5--5--5--5--5--5--|
--5--5--5--5--5--5--5--5--|--3--3--3--3--3--3--3--3--|
--------------------------|--------------------------|

  E  E  E  E  E  E  E  E     E  E  E  E  E  E  E  E   
--------------------------|--------------------------|
--------------------------|--------------------------|
--5--5--5--5--5--5--5--5--|--0--0--0--0--0--0--0--0--|
--5--5--5--5--5--5--5--5--|--2--2--2--2--2--2--2--2--|
--3--3--3--3--3--3--3--3--|--2--2--2--2--2--2--2--2--|
--------------------------|--------------------------|

  E  E  E  E  E  E  E  E     E  E  E  E  E  E  E  E   
--------------------------|--------------------------|
--------------------------|--------------------------|
--7--7--7--7--7--7--7--7--|--5--5--5--5--5--5--5--5--|
--7--7--7--7--7--7--7--7--|--5--5--5--5--5--5--5--5--|
--5--5--5--5--5--5--5--5--|--3--3--3--3--3--3--3--3--|
--------------------------|--------------------------|

  E  E  E  E  E  E  E  E     E  E  E  E  E  E  E  E   
--------------------------|--------------------------|
--------------------------|--------------------------|
--5--5--5--5--5--5--5--5--|--0--0--0--0--0--0--0--0--|
--5--5--5--5--5--5--5--5--|--2--2--2--2--2--2--2--2--|
--3--3--3--3--3--3--3--3--|--2--2--2--2--2--2--2--2--|
--------------------------|--------------------------|

  E  E  E  E  E  E  E  E     E  E  E  E  E  E  E  E   
--------------------------|--------------------------|
--------------------------|--------------------------|
--7--7--7--7--7--7--7--7--|--5--5--5--5--5--5--5--5--|
--7--7--7--7--7--7--7--7--|--5--5--5--5--5--5--5--5--|
--5--5--5--5--5--5--5--5--|--3--3--3--3--3--3--3--3--|
--------------------------|--------------------------|

  E  E  E  E  E  E  E  E     E  E  E  E  E  E  E  E   
--------------------------|--------------------------|
--------------------------|--------------------------|
--5--5--5--5--5--5--5--5--|--0--0--0--0--0--0--0--0--|
--5--5--5--5--5--5--5--5--|--2--2--2--2--2--2--2--2--|
--3--3--3--3--3--3--3--3--|--2--2--2--2--2--2--2--2--|
--------------------------|--------------------------|

  E  E  E  E  E  E  E  E     E  E  E  E  E  E  E  E   
--------------------------|--------------------------|
--------------------------|--------------------------|
--7--7--7--7--7--7--7--7--|--5--5--5--5--5--5--5--5--|
--7--7--7--7--7--7--7--7--|--5--5--5--5--5--5--5--5--|
--5--5--5--5--5--5--5--5--|--3--3--3--3--3--3--3--3--|
--------------------------|--------------------------|

  E  E  E  E  E  E  E  E     E  E  E  E  E  E  E  E   
--------------------------|--------------------------|
--------------------------|--------------------------|
--5--5--5--5--5--5--5--5--|--0--0--0--0--0--0--0--0--|
--5--5--5--5--5--5--5--5--|--2--2--2--2--2--2--2--2--|
--3--3--3--3--3--3--3--3--|--2--2--2--2--2--2--2--2--|
--------------------------|--------------------------|

  E  E  E  E  E  E  E  E     E  E  E  E  E  E  E  E   
--------------------------|--------------------------|
--------------------------|--------------------------|
--7--7--7--7--7--7--7--7--|--5--5--5--5--5--5--5--5--|
--7--7--7--7--7--7--7--7--|--5--5--5--5--5--5--5--5--|
--5--5--5--5--5--5--5--5--|--3--3--3--3--3--3--3--3--|
--------------------------|--------------------------|

  E  E  E  E  E  E  E  E     E  E  E  E  E  E  E  E   
--------------------------|--------------------------|
--------------------------|--------------------------|
--5--5--5--5--5--5--5--5--|--0--0--0--0--0--0--0--0--|
--5--5--5--5--5--5--5--5--|--2--2--2--2--2--2--2--2--|
--3--3--3--3--3--3--3--3--|--2--2--2--2--2--2--2--2--|
--------------------------|--------------------------|

  E  E  E  E  E  E  E  E     E  E  E  E  E  E  E  E   
--------------------------|--------------------------|
--------------------------|--------------------------|
--7--7--7--7--7--7--7--7--|--5--5--5--5--5--5--5--5--|
--7--7--7--7--7--7--7--7--|--5--5--5--5--5--5--5--5--|
--5--5--5--5--5--5--5--5--|--3--3--3--3--3--3--3--3--|
--------------------------|--------------------------|

  E  E  E  E  E  E  E  E     E  E  E  E  E  E  E  E   
--------------------------|--------------------------|
--------------------------|--------------------------|
--5--5--5--5--5--5--5--5--|--0--0--0--0--0--0--0--0--|
--5--5--5--5--5--5--5--5--|--2--2--2--2--2--2--2--2--|
--3--3--3--3--3--3--3--3--|--2--2--2--2--2--2--2--2--|
--------------------------|--------------------------|

  E  E  E  E  E  E  E  E     E  E  E  E  E  E  E  E   
--------------------------|--------------------------|
--------------------------|--------------------------|
--7--7--7--7--7--7--7--7--|--5--5--5--5--5--5--5--5--|
--7--7--7--7--7--7--7--7--|--5--5--5--5--5--5--5--5--|
--5--5--5--5--5--5--5--5--|--3--3--3--3--3--3--3--3--|
--------------------------|--------------------------|

  E  E  E  E  E  E  E  E     E  E  E  E  E  E  E  E   
--------------------------|--------------------------|
--------------------------|--------------------------|
--5--5--5--5--5--5--5--5--|--0--0--0--0--0--0--0--0--|
--5--5--5--5--5--5--5--5--|--2--2--2--2--2--2--2--2--|
--3--3--3--3--3--3--3--3--|--2--2--2--2--2--2--2--2--|
--------------------------|--------------------------|

  E  E  E  E  E  E  E  E     E  E  E  E  E  E  E  E   
--------------------------|--------------------------|
--------------------------|--------------------------|
--7--7--7--7--7--7--7--7--|--5--5--5--5--5--5--5--5--|
--7--7--7--7--7--7--7--7--|--5--5--5--5--5--5--5--5--|
--5--5--5--5--5--5--5--5--|--3--3--3--3--3--3--3--3--|
--------------------------|--------------------------|

  E  E  E  E  E  E  E  E     E  E  E  E  E  E  E  E   
--------------------------|--------------------------|
--------------------------|--------------------------|
--5--5--5--5--5--5--5--5--|--0--0--0--0--0--0--0--0--|
--5--5--5--5--5--5--5--5--|--2--2--2--2--2--2--2--2--|
--3--3--3--3--3--3--3--3--|--2--2--2--2--2--2--2--2--|
--------------------------|--------------------------|

  E  E  E  E  E  E  E  E     E  E  E  E  E  E  E  E   
--------------------------|--------------------------|
--------------------------|--------------------------|
--7--7--7--7--7--7--7--7--|--5--5--5--5--5--5--5--5--|
--7--7--7--7--7--7--7--7--|--5--5--5--5--5--5--5--5--|
--5--5--5--5--5--5--5--5--|--3--3--3--3--3--3--3--3--|
--------------------------|--------------------------|

  E  E  E  E  E  E  E  E     E  E  E  E  E  E  E  E   
--------------------------|--------------------------|
--------------------------|--------------------------|
--5--5--5--5--5--5--5--5--|--0--0--0--0--0--0--0--0--|
--5--5--5--5--5--5--5--5--|--2--2--2--2--2--2--2--2--|
--3--3--3--3--3--3--3--3--|--2--2--2--2--2--2--2--2--|
--------------------------|--------------------------|

  E  E  E  E  E  E  E  E     W                 
--------------------------|-------------------|
--------------------------|-------------------|
--7--7--7--7--7--7--7--7--|--5----------------|
--7--7--7--7--7--7--7--7--|--5----------------|
--5--5--5--5--5--5--5--5--|--3----------------|
--------------------------|-------------------|

  W                  
-------------------||
-------------------||
--L----------------||
--L----------------||
--L----------------||
-------------------||

Duration Legend
---------------
W - whole
H - half
Q - quarter
E|- 8th
S - 16th
T - 32nd
X - 64th
. - note dotted
|-n-|  - n-tuplets

Tablature Legend
----------------
L - tied note
x - dead note
g - grace note
(n) - ghost note
> - accentuded note
NH - natural harmonic
AH - artificial harmonic
TH - tapped harmonic
SH - semi harmonic
PH - pitch harmonic
h - hammer on
p - pull off
b - bend
br - bendRelease
pb - preBend
pbr - preBendRelease
brb - bendReleaseBend
\n/ - tremolo bar dip
\n - tremolo bar dive
-/n - tremolo bar Release up
/n\ - tremolo bar inverted dip
/n - tremolo bar return
-\n - tremolo bar Release down
S - shift slide
s - legato slide
/ -  slide into from below or out of upwards
\ -  slide into from above or out of downwards
~ - vibrato
W - wide vibrato
tr - trill
TP - tremolo picking
T - tapping
S - slap
P - pop
< - fade in
^ - brush up
v - brush down
Composição de Tom Smith
Colaboração e revisão:
  • Danilo Dutra
933 exibições
    • ½ Tom
    • A
    • Bb
    • B
    • C
    • Db
    • D
    • Eb
    • E
    • F
    • F#
    • G
    • Ab
  • Adicionar à lista

    0 comentários

    Ver todos os comentários

    Conseguiu tocar?

    0 Tocaram 0 Ainda não

    Grave um vídeo tocando Fall e nos envie!

    00:00 / 00:00
    outros vídeos desta música
    repetir qualidade Automático
    Outros vídeos desta música
    00:00 / 00:00
    Automático

    Cifra Club Pro

    Aproveite o Cifra Club com benefícios exclusivos e sem anúncios
    Cifra Club Pro
    Aproveite o Cifra Club com benefícios exclusivos e sem anúncios
    OK