Cifra Club

Lights

Editors

Cifra: Principal (violão e guitarra)
Selo Cifra Club: esta cifra foi revisada para atender aos critérios oficiais da nossa Equipe de Qualidade.
tom: Em
E|-----------------------------------------------------------------------------|
        VERSE [0:00]
E|-----------------------------------------------------------------------------|

The first verse has a very acoustic feel; try and hear the rhythm of Tom's
guitar for this section. The notes on the G strings aren't loudly played.

Tom            
E|-------------|-------------|-------------|-------------|
B|-------------|-------------|-------------|-------------|
G|-9--9--9--9-/|-11-11-11-x--|-4--4--4--4-/|-5--5--5--5--|
D|-9--9--9--9-/|-12-12-12-x--|-5--5--5--5--|-5--5--5--5--| x4
A|-7--7--7--7-/|-9--9--9--x--|-2--2--2--2-/|-3--3--3--3--|
E|-------------|-------------|-------------|-------------|
   E5            D             G             C5

    I still      love the      light on      baby   .. etc


Then Russell on bass and Chris on lead come in. Tom plays this chord pattern 4
times again, with Chris playing this at the last bar the first and third times
(listen to it if you're confused :P):

[0:26]

Chris
E|-------------|-------------|
B|-------------|-------------|
G|---------12--|--11~--------|
D|-------------|-------------| x2
A|-------------|-------------|
E|-------------|-------------|
   C5            E5

E|-----------------------------------------------------------------------------|
        CHORUS [0:26]
E|-----------------------------------------------------------------------------|

Tom
E|-------------|-------------|-------------|-------------|
B|-------------|-------------|-5--5--5--5--|-------------|
G|-7--7--7--7--|-7--7--7--7--|-4--4--4--4--|-4--4--4--4--|
D|-7--7--7--7--|-7--7--7--7--|-2--2--2--2--|-5--5--5--5--|
A|-5--5--5--5--|-5--5--5--5--|-2--2--2--2--|-2--2--2--2--|
E|-------------|-------------|-------------|-------------| -\
   D5            D5            E             G
Chris
E|-------------|-------------|-------------|-------------| -/   x3
B|-------------|-------------|-------------|-------------|
G|-12----11----|-12----9-----|-12----11----|-12----9-----|
D|-------------|-------------|-------------|-------------|
A|-------------|-------------|-------------|-------------|
E|-------------|-------------|-------------|-------------|


Then...

Tom
E|-------------|-------------|-------------|-------------|
B|-------------|-------------|-5--5--5--5--|-------------|
G|-7--7--7--7--|-7--7--7--7--|-4--4--4--4--|-4--4--4--4--|
D|-7--7--7--7--|-7--7--7--7--|-2--2--2--2--|-5--5--5--5--|
A|-5--5--5--5--|-5--5--5--5--|-2--2--2--2--|-2--2--2--2--|
E|-------------|-------------|-------------|-------------| -\

Chris
E|-------------|-------------|-------------|-------------| -/
B|-------------|-------------|-------------|-------------|
G|-12~~~~~~~~--|-------------|-14~~~~~~~~--|-------------|
D|-------------|-------------|-------------|-------------|
A|-------------|-------------|-------------|-------------|
E|-------------|-------------|-------------|-------------|
   (let ring and plenty of echo too)


E|-----------------------------------------------------------------------------|
        BDA K [0:40]
E|-----------------------------------------------------------------------------|

Tom & Chris
E|-12----------|-12--12------|
B|-12----------|-12--12------|
G|-------------|-------------|
D|-------------|-------------| x4
A|-------------|-------------|
E|-------------|-------------|
  (again, masses of echo)

E|-----------------------------------------------------------------------------|
        VERSE [0:53]
E|-----------------------------------------------------------------------------|

Tom takes a break. But no kitkat, he's singing.

Chris
E|-12----------|-12--12------|
B|-12----------|-12--12------|
G|-------------|-------------|
D|-------------|-------------| x4
A|-------------|-------------|
E|-------------|-------------|
   (echo)

E|-----------------------------------------------------------------------------|
        CHORUS [1:05]
E|-----------------------------------------------------------------------------|

Same as the the first chorus.


E|-----------------------------------------------------------------------------|
        BDA K [1:18]
E|-----------------------------------------------------------------------------|

Tom
E|-------------|-------------|-------------|-------------|
B|-------------|-------------|-------------|-------------|
G|-9-----11----|-4-----5-----|-9-----11----|-4-----5-----|
D|-9-----12----|-5-----5-----|-9-----12----|-5-----5-----|
A|-7-----9-----|-2-----3-----|-7-----9-----|-2-----3-----|
E|-------------|-------------|-------------|-------------| -\

Chris
E|-------------|-------------|-------------|-------------| -/    x2
B|-------------|-------------|-------------|-------------|
G|-12----11----|-12----9-----|-11----7-----|-9-----4-----|
D|-------------|-------------|-------------|-------------|
A|-------------|-------------|-------------|-------------|
E|-------------|-------------|-------------|-------------|


E|-----------------------------------------------------------------------------|
        VERSE/DF RAIN [1:32]
E|-----------------------------------------------------------------------------|

Live they play this slightly differently, and I can't really hear Tom's guitar (at
all) so... if you like, play the E in the chorus. If you think Tom plays something
and you know what it is.. please tell :).

Chris
e|-#12#--------|-#12-12#-----|-#14#----#17-|-#19#--------|
B|-#12#--------|-#14/15#-----|-#17#----#17-|-#19#--------|
G|-------------|-------------|-------------|-------------|
D|-------------|-------------|-------------|-------------|
A|-------------|-------------|-------------|-------------|
E|-------------|-------------|-------------|-------------|
(massive echo all the time)

E|-----------------------------------------------------------------------------|
        BDA K [1:45]
E|-----------------------------------------------------------------------------|

Tom (all the way through the break)
E|-------------|
B|----5--------|
G|----4--------|
D|----2--------| strummed a few times on its own first.
A|----2--------|
E|-------------|

Then Chris comes in

[1:47]

Chris
E|-12----------|-12--12------|
B|-12----------|-12--12------|
G|-------------|-------------| x4
D|-------------|-------------|
A|-------------|-------------|
E|-------------|-------------|
(keep with the echo)

E|-----------------------------------------------------------------------------|
        CHORUS [2:01]
E|-----------------------------------------------------------------------------|

Same as the first and second choruses the first time. Then Tom carries on and
Chris goes up an octave, so it's instead:

Chris
E|-15----14----|-15----12----|
B|-------------|-------------|
G|-------------|-------------|
D|-------------|-------------| x8  (over Tom's chords)
A|-------------|-------------|
E|-------------|-------------|


END! :)

Thanks for reading.


E|-----------------------------------------------------------------------------|
        LYRICS
E|-----------------------------------------------------------------------------|

VERSE

I still love the light on baby 
It keeps me awake but I don't mind 
Everything I always wanted 
Is right there but soon it won't be 

CHORUS

Oh, if fortune favours the brave 
I am as poor as they come 
I've got a million things to say 
I've got a million things to 

VERSE

I still love the light on baby 
It keeps me awake but I don't mind 
Everything I always wanted 
Is right there but soon it won't be 

CHORUS

Oh, if fortune favours the brave 
I am as poor as they come 
I've got a million things to say 
I've got a million things to 

VERSE/DF RAIN

I still love the light on baby 
I still love the light on baby 
I still love the light on baby 
I still love the light on baby 

CHORUS

Oh, if fortune favours the brave 
I am as poor as they come 
I've got a million things to say 
I've got a million things to (ohhhhh)
A million things to say 
A million things to say 
A million things to say 

E|-----------------------------------------------------------------------------|

Key:
/       - Slide up
\       - Slide down
b       - Bend
r       - Return
x       - Mute
PM      - Palm mute
~       - Let ring/vibrato
h       - Hammer-on
p       - Pull-off
<>        - Harmonic
#n#     - Tremelo pick
-\      - Parts played together 
Outros vídeos desta música
    16 exibições
      • ½ Tom
      • Am
      • Bbm
      • Bm
      • Cm
      • C#m
      • Dm
      • Ebm
      • Em
      • Fm
      • F#m
      • Gm
      • G#m
    • Adicionar à lista

    Afinação da cifra

    Afinador online

      0 comentários

      Ver todos os comentários

      Conseguiu tocar?

      0Tocaram0Ainda não

      Grave um vídeo tocando Lights e nos envie!

      Toque também

      1. Imagem do artista InterpolEvil Interpol
      2. Imagem do artista The NationalRains Of Castamere The National
      3. Imagem do artista Smith & BurrowsWonderful Life Smith & Burrows
      4. Imagem do artista The MaccabeesToothpaste Kisses The Maccabees

      Entre para o Cifra Club PRO

      Tenha acesso a benefícios exclusivos no App e no Site

      • Chega de anúncios

      • Badges exclusivas

      • Mais recursos no app do Afinador

      • Atendimento Prioritário

      • Aumente seu limite de lista

      • Ajude a produzir mais conteúdo

      Cifra Club Pro

      Aproveite o Cifra Club com benefícios exclusivos e sem anúncios
      Cifra Club Pro
      Aproveite o Cifra Club com benefícios exclusivos e sem anúncios
      Ops (: Contenido disponible sólo en portugués.
      OK