Cifra Club

Aprenda

Racing Rats Intro

Editors

Cifra: Principal (violão e guitarra)
tom: G
This is what i think so far after a few minutes!

Intro/Verse (Piano):

|--3----5--6-----------------------------------------------------------------|
|--5----7--8------3----6--5--------------------------------------------------|
|--5----7--8------5----8--7-------------(Repeat few times)-------------------|
|-----------------5----8--7--------------------------------------------------|
|----------------------------------------------------------------------------|
|----------------------------------------------------------------------------|

Main Riff (Nice!):

|-----------------------------------------------------------------------------------------------------------|
|-----------------------------------------------------------------------------------------------------------|
|-----------------------------------------------------------------------------------------------------------|
|-------------------12-9-9-9-9-11-11-11-12-12-12------------------------------------------11-11-11-12-12-12-|
|----------------12----------------------------------------------12-12-12-12-12-12-12-12--------------------|
|-15-15-15-15-12----------------------------------10-10-10-10-12--------------------------------------------|

Working on rest, update if any ye wants,
cheers,
Andrew
579 exibições
    • ½ Tom
    • A
    • Bb
    • B
    • C
    • Db
    • D
    • Eb
    • E
    • F
    • F#
    • G
    • Ab
  • Adicionar à lista

    0 comentários

    Ver todos os comentários

    Conseguiu tocar?

    0 Tocaram 0 Ainda não

    Grave um vídeo tocando Racing Rats Intro e nos envie!

    00:00 / 00:00
    outros vídeos desta música
    repetir qualidade Automático
    Outros vídeos desta música
    00:00 / 00:00
    Automático

    Cifra Club Pro

    Aproveite o Cifra Club com benefícios exclusivos e sem anúncios
    Cifra Club Pro
    Aproveite o Cifra Club com benefícios exclusivos e sem anúncios
    OK