Enviar cifraEntrar

Azul

Edson e Hudson

Cifra: Principal
exibições 619.864
Tom: B
(intro) F  Bb


E|-5-X-6-X-5-666666-|
B|-6-X-6-X-6-666666-|
G|-5-X-5-X-5-555555-|
D|------------------|
A|------------------|
E|------------------|


F                   Bb
Foi na manhã em que eu te encontrei
C                Am               Dm
Quando a brisa tocava tua doce pele
                          G
Teus olhos tristes que eu adorei ver
    Bb                C
Na noite em que eu te amei

F                      Bb
Quando em silencio por fim te beijei
C                  Am                Dm
Sentir la dentro nascer esse amor azul
                   G
Olho pro ceu em você posso ver
     Bb                     C
A estrela que eu sempre sonhei

(refrão)
F             Bb                C
E esse amor é azul como o mar, azul
             Am               Dm
Como no coração uma doce ilusão
            G                   Bb
Azul como a lágrima quando a perdão
               C                      F
Tão puro e tão azul que entra no coração
                Bb              C
E esse amor é azul como o mar, azul
                F                    Dm
Como o azul do céu que ilumina a paixão
               G                Bb
Azul como a estrela do meu coração
             C                    F   Bb C
Uma estrela azul que me enche de amor

F                      Bb
Como um milagre que eu tanto esperei
C                  Am                Dm
É a garota que eu sempre sonhei, azul
                       G
Tua inocencia que eu quero entender
     Bb                 C
Seu príncipe azul eu serei
F                     Bb
São mil loucuras de amor com você
C              Am            Dm
Raio de lua será para mim azul
                   G
E como a chuva pintada de azul
Gm                C
Sempre será só você

(refrão)

(solo)

E|-------------------------------------------------------------|
B|------7-9-9/11-77-9~------6-6h7~--6h7------------------------|
G|-66-8-----------------6h8-------------8-6h8--6--------6------|
D|-----------------------------------------------8--6h8---8-4--|
A|-------------------------------------------------------------|
E|-------------------------------------------------------------|


E|------------11-9----14/16-14-13-11-9----9-11~--99~-1010~----2--|
B|-----7-9-11------11------------------11---------------------2--|
G|-6-8--------------------------------------------------------3--|
D|------------------------------------------------------------4--|
A|------------------------------------------------------------4--|
E|------------------------------------------------------------2--|


F#              B               C#
E esse amor é azul como o mar, azul
             A#m            D#m
Como no coração uma doce ilusão
            G#                    G#m
Azul como a lágrima quando a perdão
                C#                    F#
Tão puro e tão azul que entra no coração
F#              B               C#
E esse amor é azul como o mar, azul
                A#m                 D#m
Como o azul do céu que ilumina a paixão
               G#                 G#m
Azul como a estrela do meu coração
                C#                        F#  B  F#  B  F#
Uma estrela azul que me enche de amor
  • 1
  • 2
  • 3
  • 4
  • 5
  • 6
  • 7
  • 8
  • 9
  • 10
  • 11
  • 12
    Acordes para:

      0 comentários

        mostrar mais comentários

        Conseguiu tocar?

        16tocaram1ainda não

        Grave um vídeo tocando Azul e mande pra gente!

        00:00 / 00:00
        outros vídeos desta música
        repetirqualidadeautomática
        • automática
        Outro vídeos desta música
          00:00 / 00:00
          automática
          • automática
          Acordes para:violão e guitarra
          dificuldadeexibiçõescontribuições
          fecharplay/pause subir/descer velocidade
            acordes
            fechar
            OK
            Feedback