Cifra Club

Boate Azul

Edson e Hudson

Cifra: Principal (violão e guitarra)
exibições 3.492
Tom: E
[Intro]  F#m  B  E  A  F#m  G#  C#m  C#7
        
   F#m                  B   E                   A   F#m         G#        C#m
E|-----4h5p4-4-5-4-5-----|-----2h4p2-2-4-2-4-----|-------------------------|
B|-4-5---------------5-4-|-4-5---------------4-2-|-4h5-7-5-7-5-7-----------|
G|-----------------------|-----------------------|---------------8h5-6-8-6-|
D|-----------------------|-----------------------|-------------------------|
A|-----------------------|-----------------------|-------------------------|
E|-----------------------|-----------------------|-------------------------|

 C#m                                        B
Doente de amor procurei remédio na vida noturna
                A                              G#
Como a flor da noite em uma boate aqui na zona sul
           F#m                               C#m
A dor do amor é com outro amor que a gente cura
             G#7                              C#m    C#7
Vim curar a dor deste mal de amor na boate azul
            F#m                                     C#m
E quando a noite vai se agonizando no clarão da aurora
      G#                              C#m     C#7
Os integrantes da vida noturna se foram dormir
             F#m                                   C#m
E a dama da noite que estava comigo também foi embora
                A                G#7            C#
Fecharam-se as portas sozinho de novo tive que sair
             G#                   F#              C#
Sair de que jeito, se nem sei o rumo para onde vou
                                 G#            F#                 C#
Muito vagamente me lembro que estou  em uma boate aqui na zona sul
         G#            F#                  C#
Eu bebi demais e não consigo me lembrar se quer
                       G#                 F#     G#         C#
Qual é o nome daquela mulher, a flor da noite da boate azul

[Solo]  F#m  B  E  A  F#m  G#  C#m  C#7

   F#m                  B   E                   A   F#m         G#        C#m           C#7
E|-----4h5p4-4-5-4-5-----|-----2h4p2-2-4-2-4-----|-----------------------|--------------4-|
B|-4-5---------------5-4-|-4-5---------------4-2-|-4h5-7-5-7-5-7---------|----7---6---4-6-|
G|-----------------------|-----------------------|---------------8h5-6-8-|--------------4-|
D|-----------------------|-----------------------|-----------------------|-\6---6---6---6-|
A|-----------------------|-----------------------|-----------------------|--------------4-|
E|-----------------------|-----------------------|-----------------------|----------------|

            F#m                                     C#m
E quando a noite vai se agonizando no clarão da aurora
      G#                              C#m     C#7
Os integrantes da vida noturna se foram dormir
             F#m                                   C#m
E a dama da noite que estava comigo também foi embora
                A                G#7            C#
Fecharam-se as portas sozinho de novo tive que sair
             G#                   F#              C#
Sair de que jeito, se nem sei o rumo para onde vou
                                 G#              F#               C#
Muito vagamente me lembro que estou  em uma boate aqui na zona sul
           G#             F#                   C#
Eu bebi demais e não consigo me lembrar se quer
                       G#                 F#     G#         C#
Qual é o nome daquela mulher, a flor da noite da boate azul

[Final]  G#  B  D#  C#
Acordes para:
    Composição: Benedito Seviero / Pasquareli / Tomaz Fortuna Colaboração e revisão:
    • Jo

    0 comentários

    mostrar mais comentários

    Conseguiu tocar?

    1 tocaram 0 ainda não

    Grave um vídeo tocando Boate Azul e mande pra gente!

    00:00 / 00:00
    outros vídeos desta música
    repetir qualidade Automático
    Outros vídeos desta música
    00:00 / 00:00
    Automático
    OK