Cifra Club

Deixa Eu Te Amar

Edson e Hudson

Cifra: Principal (violão e guitarra)
exibições 590.404
Tom: F#m
[Intro] A  C#m  D  E

E|-------5-4--5----------------------------------|
B|-----5--------5---5-5/7------------------------|
G|---6------------6-------7---7~-6-4-------------|
D|--------------------------7--------7/9-7-------|
A|-----------------------------------------9/7---|
E|-----------------------------------------------|

E|-----5-4--5------------------------------------------------|
B|---5--------5---5-5/7--------------------------------------|
G|-6------------6-------7--6-6~-7-4~-------------------------|
D|--------------------------------------6/4-2~----4/2--------|
A|----------------------------------------------------4/2-0--|
E|-----------------------------------------------------------|

[Dedilhado]

            A       A                          D      Dm         D
E|-----------------0------0------------------0--------1-----0---------|
B|-------0--2------2----0-----2------------3-----3------3-------3-----|
G|-----2------2----2--2---------2--------2---------2------2-------2---|
D|---2----------2--2--------------2----0-------------0--------------0-|
A|-0---------------0--------------------------------------------------|
E|--------------------------------------------------------------------|

            A        Bm C#m Dm D#m     Bm               E
E|---------------------------------------------2----------------0-----|
B|-------0--2-----------5--6--7~-----------3-----3------------0---0---|
G|-----2------2------4--6--7--8~---------4-------------1----1-------1-|
D|---2----------2----4-----------------4-----------4---2--2-----------|
A|-0-----------------2--4--5--6~-----2-----------------2--------------|
E|-----------------------------------------------------0--------------|

     A
Porque você me olha assim
            D
Qual o seu medo?
     Dm              A
Alguém já te fez sofrer
            B             Bm   E4 E
Qual o seu medo, diz pra mim
    A
Se por amor já veio a sofrer
             D
E agora tem medo
     Dm            A
De amar e se envolver
            B             Bm E4 E
Qual o seu medo, diz pra mim

C#m                         F#m
   Sei que palavras não vão adiantar
C#m                         F#m
   Se o coração não quer acreditar
C#m                             F#m
   Confia em mim não, vai se arrepender
                D                    D/E E
O que eu mais quero é não te ver sofrer
A                   C#m
Amor sincero tenho dentro de mim
        F#m               C#m
Pra te dar, é só você querer e arriscar
         D                  C#m
Pois não é ilusão, nem tão pouco atração
        Bm                   E   E7
É mais forte do que pode pensar
                         A
Não sabe o quanto já sofri por amor
         C#m
Conheço bem essa dor
         F#m                C#m
Que destrói, e causa insegurança demais
       D                        C#m
Pra você superar, tem que uma chance se dar
           Bm               E
E não ter medo de se apaixonar
              A
Deixa eu te amar
  E                      A
Ô, ô deixa, deixa eu te amar

[Solo] A  C#m  D  E

E|-------5-4--5----------------------------------|
B|-----5--------5---5-5/7------------------------|
G|---6------------6-------7---7~-6-4-------------|
D|--------------------------7--------7/9-7-------|
A|-----------------------------------------9/7---|
E|-----------------------------------------------|

E|-----5-4--5------------------------------------------------|
B|---5--------5---5-5/7--------------------------------------|
G|-6------------6-------7--6-6~-7-4~-------------------------|
D|--------------------------------------6/4-2~----4/2--------|
A|----------------------------------------------------4/2-0--|
E|-----------------------------------------------------------|

B                   D#m
Amor sincero tenho dentro de mim
        G#m               D#m
Pra te dar, é só você querer e arriscar
         E                  D#m
Pois não é ilusão, nem tão pouco atração
        C#m                  F# F#7
É mais forte do que pode pensar
                         B
Não sabe o quanto já sofri por amor
         D#m
Conheço bem essa dor
         G#m               D#m
Que destrói, e causa insegurança demais
       E                        D#m
Pra você superar, tem que uma chance se dar
           C#m              F#
E não ter medo de se apaixonar
              B
Deixa eu te amar
  F#                      B
Ô, ô deixa, deixa eu te amar

[Solo] B  D#m  E  F#
                                                        B
E|------------------------------------------------------2--|
B|4-5-7-5-4-4~--5----------4~-----4-5-7-5-4-4~--5-------4--|
G|-----------------6~--4-6------------------------6~----4--|
D|------------------------------------------------------4--|
A|------------------------------------------------------2--|
E|------------------------------------------------------2--|
Acordes para:
    Colaboração e revisão:

    0 comentários

      mostrar mais comentários

      Conseguiu tocar?

      12tocaram1ainda não

      Grave um vídeo tocando Deixa Eu Te Amar e mande pra gente!

      00:00 / 00:00
      outros vídeos desta música
      repetirqualidadeAutomático
      Outro vídeos desta música
        00:00 / 00:00
        OK