Cifra Club

Fala

Edson e Hudson

Cifra: Principal (violão e guitarra)
tom: E
[Intro] E  A  E  A

E|--2-0---2-0---4~--------------2-0---2-0---4~0-------|
B|------0-----0---------------------0-----0-----------|
G|----------------------------------------------------| (2x)
D|----------------------------------------------------|
A|----------------------------------------------------|
E|----------------------------------------------------|

[Primeira Parte]

 E
Fala que entendi errado
               C#m
Que não teve a intenção de terminar
 A                   F#m
Fala que foi sem querer
                 B
Foi da boca pra fora

Um ato sem pensar

[Segunda Parte]

 E                    
Fala que ainda guarda 
                    C#m
Dentro do fundo do peito uma louca paixão
 A                F#m 
Fala que ainda me ama 
             B
E não é ninguém sem o meu coração

[Refrão]

 E       B        C#m
Fala eu vou entender

Que bateu solidão
A        F#m         B
 Que só pensa em me ver
                 E      B        C#m
Fala amor eu preciso ouvir de você
     B         A
Que ainda me quer
            F#m      B
Que foi um mal entendido
                 E
Entre um homem e uma mulher

( E  A  E  A )

E|--2-0---2-0---4~--------------2-0---2-0---4~0-------|
B|------0-----0---------------------0-----0-----------|
G|----------------------------------------------------| (2x)
D|----------------------------------------------------|
A|----------------------------------------------------|
E|----------------------------------------------------|

[Primeira Parte]

 E
Fala que entendi errado
               C#m
Que não teve a intenção de terminar
 A                   F#m
Fala que foi sem querer
                 B
Foi da boca pra fora

Um ato sem pensar

[Segunda Parte]

 E                    
Fala que ainda guarda 
                    C#m
Dentro do fundo do peito uma louca paixão
 A                F#m 
Fala que ainda me ama 
             B
E não é ninguém sem o meu coração

[Refrão]

 E       B        C#m
Fala eu vou entender

Que bateu solidão
A        F#m         B
 Que só pensa em me ver
                 E      B        C#m
Fala amor eu preciso ouvir de você
     B         A
Que ainda me quer
            F#m      B
Que foi um mal entendido
                 E
Entre um homem e uma mulher

[Solo] E  B  C#m  A  F#m  B 

[Refrão]

 E       B        C#m
Fala eu vou entender

Que bateu solidão
A        F#m         B
 Que só pensa em me ver
                 E      B        C#m
Fala amor eu preciso ouvir de você
     B         A
Que ainda me quer
            F#m      B
Que foi um mal entendido
                 E
Entre um homem e uma mulher

[Final] E  A

E|--2-0---2-0---4~--------------2-0---2-0---4~0-------|
B|------0-----0---------------------0-----0-----------|
G|----------------------------------------------------| (2x)
D|----------------------------------------------------|
A|----------------------------------------------------|
E|----------------------------------------------------|
00:00 / 00:00
Outros vídeos desta música
Repetir
Outros vídeos desta música
Composição de Edson / Henrique Marx / Maurício Gaetani
Colaboração e revisão:
368.275 exibições
    • ½ Tom
    • A
    • Bb
    • B
    • C
    • Db
    • D
    • Eb
    • E
    • F
    • F#
    • G
    • Ab
  • Adicionar à lista

    0 comentários

    Ver todos os comentários

    Entre para oCifra Club PRO

    Tenha acesso a benefícios exclusivos no App e no Site

    • Chega de anúncios

    • Prioridade de compra em lançamentos

    • Mais recursos no app do Afinador

    • Atendimento Prioritário

    • Descontos nos produtos Cifra Club

    • Ajude a produzir mais conteúdo

    00:00 / 00:00

    Cifra Club Pro

    Aproveite o Cifra Club com benefícios exclusivos e sem anúncios
    Cifra Club Pro
    Aproveite o Cifra Club com benefícios exclusivos e sem anúncios
    OK