Cifra Club

Quer Namorar Comigo?

Edson e Hudson

Cifra: Principal (violão e guitarra)
tom: F#m
[Intro] F#m

                         A9
E|-------------0-------0----|
B|------2--------------0----|
G|---------4-----4-2---2----|
D|---------------------2----|
A|--0------------------0----|
E|--------------------------|

A                F#m7   D
 Quer namorar comigo?
             E              C#m7
Balance a cabeça e diz que sim
            F#m7           D
Abre um sorriso e vem pra mim
            E                    A  A9
Me dê um sinal, me chama que eu vou
                F#m     D
Quer namorar comigo?
                   E          C#m
Vou me dar com loucura pra você
                 F#m7        D
Hoje eu criei coragem pra dizer
              E                 A
Que o que eu sinto por você é amor

 C                                     A
Faz algum tempo que você vive em meus sonhos (sonhos)
  C                             E4  E
E eu esperando esse momento chegar

               D           A
Você tem um minuto pra pensar
             D           A
Apenas um segundo pra falar
            G                      E
E a vida inteira pra mostrar que quer
               D           A
Você tem um minuto pra pensar
             D             A
Apenas um segundo eu te digo
                G                 E
O que eu mais quero é te fazer feliz
                A
Quer namorar comigo?

[Solo] F#m7  D  E  C#m7  F#m7  D  E  A

E|-------------------------------------------------------|
B|-------------------------------------------------------|
G|---------------11-11-9-7-6---6-7-9--9-7-6-------6-7----|
D|-7-7-7-9-7-9/11------------9--------------9-7-9--------|
A|-------------------------------------------------------|
E|-------------------------------------------------------|

E|-------------------------------------------------------|
B|-----------------------------14----12---10-------------|
G|-7-7-6-------------------------------------------------|
D|-------9-7-6-7-9-9/11--11/14----12----11---------------|
A|-------------------------------------------------------|
E|-------------------------------------------------------|

 C                                     A
Faz algum tempo que você vive em meus sonhos (sonhos)
  C                             E4  E
E eu esperando esse momento chegar

               D           A
Você tem um minuto pra pensar
             D           A
Apenas um segundo pra falar
            G                      E
E a vida inteira pra mostrar que quer
               D           A
Você tem um minuto pra pensar
             D             A
Apenas um segundo eu te digo
                G                 E
O que eu mais quero é te fazer feliz
                A
Quer namorar comigo?

F#m7             D     E             A
     uou uou uou uou quer namorar comigo
F#m7             D     E             D   Dm  A
     uou uou uou uou quer namorar comigo
00:00 / 00:00
Outros vídeos desta música
Repetir
Outros vídeos desta música
Composição de Paulinho Levi / Tivas
395.620 exibições
    • ½ Tom
    • Am
    • Bbm
    • Bm
    • Cm
    • C#m
    • Dm
    • Ebm
    • Em
    • Fm
    • F#m
    • Gm
    • G#m
  • Adicionar à lista

    0 comentários

    Ver todos os comentários

    Entre para oCifra Club PRO

    Tenha acesso a benefícios exclusivos no App e no Site

    • Chega de anúncios

    • Prioridade de compra em lançamentos

    • Mais recursos no app do Afinador

    • Atendimento Prioritário

    • Descontos nos produtos Cifra Club

    • Ajude a produzir mais conteúdo

    00:00 / 00:00

    Cifra Club Pro

    Aproveite o Cifra Club com benefícios exclusivos e sem anúncios
    Cifra Club Pro
    Aproveite o Cifra Club com benefícios exclusivos e sem anúncios
    OK