Cifra Club

Aprenda

Replay

Edu Chociay

Cifra: Principal (violão e guitarra)
tom: C
        C                G                       Am
E|-14--14h16------------------14h16--14h16--14h16-----------------|
B|--------------16--14--12-------------------------16--14--11h12--|
G|----------------------------------------------------------------|
D|----------------------------------------------------------------|
A|----------------------------------------------------------------|
E|----------------------------------------------------------------|

        C                G       F
E|-14--14h16-------------------11h12-12-12-11h12p11---------------|
B|--------------16--14--12----------------------------------------|
G|----------------------------------------------------------------|
D|----------------------------------------------------------------|
A|----------------------------------------------------------------|
E|----------------------------------------------------------------|

      C
Seu cabelo cacheado
      G
Tá jogado no meu peito
      Am
E eu sei que eu tô sujeito
            F G            Am
A me apaixonar, a me apaixonar

         C
Sua voz rouca me dizendo
     G
Que tá tudo perfeito
    Am
Mas que infelizmente
                F G             Am
Tem que me deixar, pra ir trabalhar
                Dm                G
Mas eu quero de novo, de novo, de novo

              Dm
Seus olhos castanhos
               G
De manhã me olhando
              C       G/B        Am
Seus lábios macios dizendo eu te amo
             Dm
Usou minha camisa
             G
E ficou tão linda
             C        G/B     Am
Te quero de noite, manhã e de dia
      Dm        G
Todo dia ah ah ah

               C
Eu quero um replay
       G       Am
Ei ei ei ei ei eie ei
               C
Eu quero um replay
       G       Am
Ei ei ei ei ei eie ei
       Dm                     G
Minha rainha, tão linda tão minha


        C                G                       Am
E|-14--14h16------------------14h16--14h16--14h16-----------------|
B|--------------16--14--12-------------------------16--14--11h12--|
G|----------------------------------------------------------------|
D|----------------------------------------------------------------|
A|----------------------------------------------------------------|
E|----------------------------------------------------------------|

        C                G       F
E|-14--14h16-------------------11h12-12-12-11h12p11---------------|
B|--------------16--14--12----------------------------------------|
G|----------------------------------------------------------------|
D|----------------------------------------------------------------|
A|----------------------------------------------------------------|
E|----------------------------------------------------------------|
Composição de Edu Chociay
Colaboração e revisão:
  • Ellyeberth Leandro
409 exibições
    • ½ Tom
    • A
    • Bb
    • B
    • C
    • Db
    • D
    • Eb
    • E
    • F
    • F#
    • G
    • Ab
  • Adicionar à lista

    0 comentários

    Ver todos os comentários
    00:00 / 00:00
    Outros vídeos desta música
    Repetir Qualidade Automático
    Outros vídeos desta música
    00:00 / 00:00
    Automático

    Cifra Club Pro

    Aproveite o Cifra Club com benefícios exclusivos e sem anúncios
    Cifra Club Pro
    Aproveite o Cifra Club com benefícios exclusivos e sem anúncios
    OK