Cifra Club

Saudade

Eduardo Costa

Cifra: Principal (violão e guitarra)
exibições 328.227
Tom: G
[Intro]  G  C  F  C  G

  1ª Parte

E|-------------------------------------------------------------------------|
A|-------------------------------------------------------------------------|
D|-12----------------------------------------------------------------------|
G|-------------------------------------------------------------------------|
B|----15-15-15-15-13-12-12--13-12-10-10--12----15-15-15-15-13-12-12--13-12-|
E|-------------------------------------------------------------------------|

  2ª Parte

E|------------------------------------------------------------------------|
A|------------------------------------------------------------------------|
D|-------12-14-12--14-----------------------------------------------------|
G|-14-12----------------------------------------------------------7---9-7-|
B|--------------------12-12--13-12-10-8-10-10--12-08-10--12-10-8----------|
E|------------------------------------------------------------------------|

riff
E|--------------------------|
A|--------------------------|
D|--0h2---------------------|
G|------0-0h2-0-------------|
B|--------------------------|
E|--------------------------|

Passagem     
E|----------------------------|
A|-0-2-3----------------------|
D|-0-0-2----------------------|
G|-0-0-0----------------------|
B|-1-3-1----------------------|
E|----------------------------|

   G
Você sempre fez os meus sonhos
Sempre soube dos meus segredos
              C    F  C
Já faz muito tempo
                         G
Eu nem me lembro quanto tempo faz

O meu coração não sabe contar os dias

E a minha cabeça já está tão vazia
        C          F  C
Mas a primeira vez
          G         Passagem
Ainda me lembro bem

C            D              G
  Talvez eu seja no seu passado 
          C      riff
Mais uma página
G           C                  D
  Que foi, do seu diário arrancada
 C              D
Sonho, choro e sinto
     G                C     riff
Que resta alguma esperança
G            C                  D
  Saudade, quero arrancar essa página
          G
Da minha vida

[Solo]

E|-------------------------------------------------------------------------------------|
A|-------------------------------------------------------------------------------------|
D|-------------------------------------------------------------------------------------|
G|-------------------------------12-12~------------------------------------------------|
B|-15-15-15-15-15-15-13-12-12h13-------15-15-15-15-15-15-15-15-15-15-15-17-17-17-17-17-|
E|-------------------------------------------------------------------------------------|

E|---------------------------------------------------------------------------------3----------------|
A|-----------------------------------------------------------------------------2-0------------------|
D|----------------------------------------------------------------0--------2-0-----------------------|
G|--------------------------------------------14-12-7h9-7h9-7-5-4----0h2-0--------------------------|
B|-17-17-17-15-13-12h13-12h13-12~-12-12h13-12-------------------------------------------------------|
E|--------------------------------------------------------------------------------------------------|

( G )

   G
Você sempre fez os meus sonhos
Sempre soube dos meus segredos
              C    F  C
Já faz muito tempo
                         G
Eu nem me lembro quanto tempo faz

O meu coração não sabe contar os dias

E a minha cabeça já está tão vazia
        C          F  C
Mas a primeira vez
          G         Passagem
Ainda me lembro bem

C            D              G
  Talvez eu seja no seu passado 
          C      riff
Mais uma página
G           C                  D
  Que foi, do seu diário arrancada
 C              D
Sonho, choro e sinto
     G                C    riff
Que resta alguma esperança
G            C                  D
  Saudade, quero arrancar essa página
          G
Da minha vida

[Final]

E|--------------------------|
A|--------------------------|
D|--------------------------|
G|--12-14-14/16-------------|
B|--------------15~---------|
E|--------------------------|
Acordes para:
    Composição: Eduardo CostaColaboração e revisão:

    0 comentários

      mostrar mais comentários

      Conseguiu tocar?

      21tocaram10ainda não

      Grave um vídeo tocando Saudade e mande pra gente!

      00:00 / 00:00
      outros vídeos desta música
      repetirqualidadeAutomático
      Outro vídeos desta música
        00:00 / 00:00
        OK