Cifra Club

Hang Ten

Edwin

Cifra: Principal (violão e guitarra)
Selo Cifra Club: esta cifra foi revisada para atender aos critérios oficiais da nossa Equipe de Qualidade.
tom: C
 Album: Another Spin Around the Sun 

 INTRO (Bass plays the low E string part) 

 E|----------------------------------------------------------------------------------|

 B|--------------7--7--7--7--7--7----------------------7--7--7--7--7--7-----/9--/9---|

 G|--------------8--8--8--8--8--8----------------------8--8--8--8--8--8--------------|
 (x 2) 
 D|----------------------------------------------------------------------------------|

 A|----------------------------------------------------------------------------------|

 E|--5\0--0-----------------------------0--3--5--0-----------------------------------|


 E|--------------------------------------------------------------------------------------------|

 B|--------------------------------------------------------------------------------------------|

 G|--------------------------------------------------------------------------------------------|

 D|---------0--1--3--4--3--1-----------0--0------------0--1--3--4--3--1------------------------|
 (x 2) 
 A|---0---------------------------0--3-------------0----------------------------0--3--0--2--0--|

 E|--------------------------------------------------------------------------------------------|


 I think of her in the sunken blue 
 I think of her... 

 VERSE 1 (play riff one from intro minus the /9 /9 ending) 
 (not sure on some of the lyrics) 

 Living in a plasticine coloured dream 
 Fire me up with ??? 
 She's the rose in my gun (
Outros vídeos desta música
    288 exibições
      • ½ Tom
      • A
      • Bb
      • B
      • C
      • Db
      • D
      • Eb
      • E
      • F
      • F#
      • G
      • Ab
    • Adicionar à lista

    Afinação da cifra

    Afinador online

      0 comentários

      Ver todos os comentários

      Conseguiu tocar?

      0Tocaram0Ainda não

      Grave um vídeo tocando Hang Ten e nos envie!

      Toque também

      1. Imagem do artista Big WreckThe Oaf Big Wreck
      2. Imagem do artista I Mother EarthLike The Sun I Mother Earth
      3. Imagem do artista Econoline CrushMake It Right Econoline Crush
      4. Imagem do artista MoistBreathe Moist

      Entre para o Cifra Club PRO

      Tenha acesso a benefícios exclusivos no App e no Site

      • Chega de anúncios

      • Badges exclusivas

      • Mais recursos no app do Afinador

      • Atendimento Prioritário

      • Aumente seu limite de lista

      • Ajude a produzir mais conteúdo

      Cifra Club Pro

      Aproveite o Cifra Club com benefícios exclusivos e sem anúncios
      Cifra Club Pro
      Aproveite o Cifra Club com benefícios exclusivos e sem anúncios
      Ops (: Contenido disponible sólo en portugués.
      OK