Cifra Club

The Call

Ego Kill Talent

Cifra: Principal (violão e guitarra)
tom: Dm
Afinação: D A D G B E

[Refrão]

Oh! Wake up now!

What you've found you were before
D                F
It's gone with the sound
        Bb
Above the crowd
      G
Free of all
D        F
Oh! Wake up now!
               Bb    G
What you've found you were before

[Tab - Riff 1]

E|--------------------------|
B|--------------------------|
G|--------------------------|
D|------------3-4-3-0-------|
A|--------------------------|
E|----0-0-0-3-5-------------|

E|--------------------------|
B|--------------------------|
G|--------------------------|
D|--------4--3--------------|
A|------------5-3-5---------|
E|----0-0-0-----------------|

[Primeira Parte]

[Tab - Riff 2]

E|--------------------------|
B|--------------------------|
G|--------------------------|
D|--------------4-3---------|
A|------------------5-3-5---|
E|----0-0-0-0-0-0-0---------|

What's in your head?

What's in your heart?

What is now and what was before?

Now you look at the mirror
                    Bb
And don't get what you see anymore

[Pré-Refrão]

Bb
I close my eyes
        G
Face a cliff inside
            C
Now I'm ready to fall

[Refrão]

D        F
Oh! Wake up now!
               Bb   G
What you've found you were before
D                 F
It's gone with the sound
        Bb
Above the crowd
        G
Free of all
D        F
Oh! Wake up now!
               Bb    G
What you've found you were before

[Segunda Parte]

Bb        G
Whatever may come
           G  A Bb
I'll be with you
Bb              C
A million suns will rise

[Pré-Refrão]

Bb
I close my eyes
        G
Face a cliff inside
           G  A Bb
We keep within us all
Bb                    G
I've been here one too many times
C
Now I'm ready to fall

[Refrão]

D         F
Oh! Wake up now!
               Bb    G
What you've found you were before
D                F
It's gone with the sound
          Bb
Above the crowd
       G
Free of all
D        F
Oh! Wake up now!
               Bb   G
What you've found you were before
D
Oh! Wake up!
F
Oh! Wake up!
Bb       G
Oh! Wake up now!
D
Oh! Wake up!
F
Oh! Wake up!
Bb       G
Oh! Wake up now!

[Tab - Riff 3]

E|--------------------------|
B|--------------------------|
G|--------------------------|
D|-----------3-4-3-0--------|
A|--------------------------|
E|----0-0-0-35--------------|

E|--------------------------|
B|--------------------------|
G|--------------------------|
D|--------4--3--------------|
A|------------5-3-5---------|
E|----0-0-0-----------------|
00:00 / 00:00
Outros vídeos desta música
Repetir
Outros vídeos desta música
Composição de Jean Dolabella / Niper Boaventura / Raphael Miranda / Theo Van Der Loo
Colaboração e revisão:
  • Bê accioly
3 exibições
    • ½ Tom
    • Am
    • Bbm
    • Bm
    • Cm
    • C#m
    • Dm
    • Ebm
    • Em
    • Fm
    • F#m
    • Gm
    • G#m
  • Adicionar à lista

    0 comentários

    Ver todos os comentários

    Conseguiu tocar?

    0 Tocaram 0 Ainda não

    Grave um vídeo tocando The Call e nos envie!

    00:00 / 00:00

    Cifra Club Pro

    Aproveite o Cifra Club com benefícios exclusivos e sem anúncios
    Cifra Club Pro
    Aproveite o Cifra Club com benefícios exclusivos e sem anúncios
    OK