Cifra Club

Aprenda

Böse Mädchen

Eisbrecher

Cifra: Principal (violão e guitarra)
tom: A (forma dos acordes no tom de B) Afinação: D G C F A D
Intro

(x3)
D|--------------------------------------------|
A|--------------------------------------------|
F|--------------------------------------------|
C|-4----11-11h13-13--9-9h11-11--7-7h9-9--6/4-4|
G|-4----11-11h13-13--9-9h11-11--7-7h9-9--6/4-4|
C|-4----11-11h13-13--9-9h11-11--7-7h9-9--6/4-4|

Guitar 1
D|---------------------|
A|---------------------|
F|---------------------|
C|-6-6-6-7-7-7-9-9-9--4|
G|-6-6-6-7-7-7-9-9-9--4|
C|-6-6-6-7-7-7-9-9-9--4|

D|--------------------------------------------|
A|--------------------------------------------|
F|--------------------------------------------|
C|-4----11-11h13-13--9-9h11-11--7-7h9-9--6/4-4|
G|-4----11-11h13-13--9-9h11-11--7-7h9-9--6/4-4|
C|-4----11-11h13-13--9-9h11-11--7-7h9-9--6/4-4|

D|----------------------------------------------|
A|----------------------------------------------|
F|----------------------------------------------|
C|-4----11-11h13-13--9-9h11-11--7-7h9-9--6/12-12|
G|-4----11-11h13-13--9-9h11-11--7-7h9-9--6/12-12|
C|-4----11-11h13-13--9-9h11-11--7-7h9-9--6/12-12|

D|----------------------------------------------------------------------------|
A|----------------------------------------------------------------------------|
F|----------------------------------------------------------------------------|
C|-4----11-11h13-13--9-9h11-11--7-7h9-9--6/12-12-12-12-11-11-11-9-9-9-7-7-7--4|
G|-4----11-11h13-13--9-9h11-11--7-7h9-9--6/12-12-12-12-11-11-11-9-9-9-7-7-7--4|
C|-4----11-11h13-13--9-9h11-11--7-7h9-9--6/12-12-12-12-11-11-11-9-9-9-7-7-7--4|

Guitar 2
D|---------------------|
A|---------------------|
F|--------------------7|
C|-6-6-6-7-7-7-9-9-9--7|
G|-6-6-6-7-7-7-9-9-9--5|
C|-6-6-6-7-7-7-9-9-9---|

(x2)
D|----------------------------------------|
A|----------------------------------------|
F|---------------------------------------7|
C|-4----11-11h13-13--9-9h11-11--7-7h9-9--7|
G|-4----11-11h13-13--9-9h11-11--7-7h9-9--5|
C|-4----11-11h13-13--9-9h11-11--7-7h9-9---|

(x1)
D|------------------------------------------------------------------------|
A|------------------------------------------------------------------------|
F|---------------------------------------7-7-7-10-10-10-14-14-14-17-17-17-|
C|-4----11-11h13-13--9-9h11-11--7-7h9-9--7-7-7-10-10-10-14-14-14-17-17-17-|
G|-4----11-11h13-13--9-9h11-11--7-7h9-9--5-5-5-8--8--8--12-12-12-15-15-15-|
C|-4----11-11h13-13--9-9h11-11--7-7h9-9-----------------------------------|

Verso
(x8)
D|--------------------------------------------|
A|--------------------------------------------|
F|--------------------------------------------|
C|--------------------------------------------|
G|--------------------------------------------|
C|-4----11-11h13-13--9-9h11-11--7-7h9-9--6/4-4|

Chorus
D|------------------------------------|
A|------------------------------------|
F|------------------------------------|
C|-4------2------12------7------9-----|
G|-4(x12)-2(x12)-12(x10)-7(x10)-9(x4)-|
C|-4------2------12------7------9-----|

D|-----------------------------------|
A|-----------------------------------|
F|---------------7------9------------|
C|-4------2------7(x10)-9(x10)-7-----|
G|-4(x12)-2(x12)-5------7------7(x4)-|
C|-4------2--------------------7-----|

(x3)
D|--------------------------------------------|
A|--------------------------------------------|
F|--------------------------------------------|
C|-4----11-11h13-13--9-9h11-11--7-7h9-9--6/4-4|
G|-4----11-11h13-13--9-9h11-11--7-7h9-9--6/4-4|
C|-4----11-11h13-13--9-9h11-11--7-7h9-9--6/4-4|

Guitar 1
D|---------------------|
A|---------------------|
F|---------------------|
C|-6-6-6-7-7-7-9-9-9--4|
G|-6-6-6-7-7-7-9-9-9--4|
C|-6-6-6-7-7-7-9-9-9--4|

D|--------------------------------------------|
A|--------------------------------------------|
F|--------------------------------------------|
C|-4----11-11h13-13--9-9h11-11--7-7h9-9--6/4-4|
G|-4----11-11h13-13--9-9h11-11--7-7h9-9--6/4-4|
C|-4----11-11h13-13--9-9h11-11--7-7h9-9--6/4-4|

D|----------------------------------------------|
A|----------------------------------------------|
F|----------------------------------------------|
C|-4----11-11h13-13--9-9h11-11--7-7h9-9--6/12-12|
G|-4----11-11h13-13--9-9h11-11--7-7h9-9--6/12-12|
C|-4----11-11h13-13--9-9h11-11--7-7h9-9--6/12-12|
D|----------------------------------------------------------------------------|
A|----------------------------------------------------------------------------|
F|----------------------------------------------------------------------------|
C|-4----11-11h13-13--9-9h11-11--7-7h9-9--6/12-12-12-12-11-11-11-9-9-9-7-7-7--4|
G|-4----11-11h13-13--9-9h11-11--7-7h9-9--6/12-12-12-12-11-11-11-9-9-9-7-7-7--4|
C|-4----11-11h13-13--9-9h11-11--7-7h9-9--6/12-12-12-12-11-11-11-9-9-9-7-7-7--4|

Guitar 2
D|---------------------|
A|---------------------|
F|--------------------7|
C|-6-6-6-7-7-7-9-9-9--7|
G|-6-6-6-7-7-7-9-9-9--5|
C|-6-6-6-7-7-7-9-9-9---|

(x2)
D|----------------------------------------|
A|----------------------------------------|
F|---------------------------------------7|
C|-4----11-11h13-13--9-9h11-11--7-7h9-9--7|
G|-4----11-11h13-13--9-9h11-11--7-7h9-9--5|
C|-4----11-11h13-13--9-9h11-11--7-7h9-9---|
(x1)
D|------------------------------------------------------------------------|
A|------------------------------------------------------------------------|
F|---------------------------------------7-7-7-10-10-10-14-14-14-17-17-17-|
C|-4----11-11h13-13--9-9h11-11--7-7h9-9--7-7-7-10-10-10-14-14-14-17-17-17-|
G|-4----11-11h13-13--9-9h11-11--7-7h9-9--5-5-5-8--8--8--12-12-12-15-15-15-|
C|-4----11-11h13-13--9-9h11-11--7-7h9-9-----------------------------------|

Verso
(x8)
D|--------------------------------------------|
A|--------------------------------------------|
F|--------------------------------------------|
C|--------------------------------------------|
G|--------------------------------------------|
C|-4----11-11h13-13--9-9h11-11--7-7h9-9--6/4-4|

Chorus
D|------------------------------------|
A|------------------------------------|
F|------------------------------------|
C|-4------2------12------7------9-----|
G|-4(x12)-2(x12)-12(x10)-7(x10)-9(x4)-|
C|-4------2------12------7------9-----|

D|-----------------------------------|
A|-----------------------------------|
F|---------------7------9------------|
C|-4------2------7(x10)-9(x10)-7-----|
G|-4(x12)-2(x12)-5------7------7(x4)-|
C|-4------2--------------------7-----|

Solo
(x8)
D|--------------------------------------------|
A|--------------------------------------------|
F|--------------------------------------------|
C|--------------------------------------------|
G|--------------------------------------------|
C|-4----11-11h13-13--9-9h11-11--7-7h9-9--6/4-4|

D|----------------------------------|
A|----------------------------------|
F--(7)--------(7)--------(7)-------|
C|-4(7)-4444--4(7)-0000--4(7)--4444-|
G|-4(5)-4444--4(5)-0000--4(5)--4444-|
C|-4----4444--4----0000--4-----4444-|

Guitar 1
D|--------------------------O------------------------------------|
A|--------------------------O------------------------------------|
F|--------------------------O--7-7-7-10-10-10-14-14-14-17-17-17--|
C|-6-6-6-7-7-7-9-9-9--4-----O--7-7-7-10-10-10-14-14-14-17-17-17--|
G|-6-6-6-7-7-7-9-9-9--4-----O--5-5-5-8--8--8--12-12-12-15-15-15--|
C|-6-6-6-7-7-7-9-9-9--4-----O------------------------------------|

D|--------------------------------------------|
A|--------------------------------------------|
F|--------------------------------------------|
C|-4----11-11h13-13--9-9h11-11--7-7h9-9--6/4-4|
G|-4----11-11h13-13--9-9h11-11--7-7h9-9--6/4-4|
C|-4----11-11h13-13--9-9h11-11--7-7h9-9--6/4-4|

D|----------------------------------------------|
A|----------------------------------------------|
F|----------------------------------------------|
C|-4----11-11h13-13--9-9h11-11--7-7h9-9--6/12-12|
G|-4----11-11h13-13--9-9h11-11--7-7h9-9--6/12-12|
C|-4----11-11h13-13--9-9h11-11--7-7h9-9--6/12-12|

D|----------------------------------------------------------------------------|
A|----------------------------------------------------------------------------|
F|----------------------------------------------------------------------------|
C|-4----11-11h13-13--9-9h11-11--7-7h9-9--6/12-12-12-12-11-11-11-9-9-9-7-7-7--4|
G|-4----11-11h13-13--9-9h11-11--7-7h9-9--6/12-12-12-12-11-11-11-9-9-9-7-7-7--4|
C|-4----11-11h13-13--9-9h11-11--7-7h9-9--6/12-12-12-12-11-11-11-9-9-9-7-7-7--4|

Guitar 2
D|---------------------|
A|---------------------|
F|--------------------7|
C|-6-6-6-7-7-7-9-9-9--7|
G|-6-6-6-7-7-7-9-9-9--5|
C|-6-6-6-7-7-7-9-9-9---|

(x2)
D|----------------------------------------|
A|----------------------------------------|
F|---------------------------------------7|
C|-4----11-11h13-13--9-9h11-11--7-7h9-9--7|
G|-4----11-11h13-13--9-9h11-11--7-7h9-9--5|
C|-4----11-11h13-13--9-9h11-11--7-7h9-9---|

(x1)
D|------------------------------------------------------------------------|
A|------------------------------------------------------------------------|
F|---------------------------------------7-7-7-10-10-10-14-14-14-17-17-17-|
C|-4----11-11h13-13--9-9h11-11--7-7h9-9--7-7-7-10-10-10-14-14-14-17-17-17-|
G|-4----11-11h13-13--9-9h11-11--7-7h9-9--5-5-5-8--8--8--12-12-12-15-15-15-|
C|-4----11-11h13-13--9-9h11-11--7-7h9-9-----------------------------------|

Chorus
D|------------------------------------|
A|------------------------------------|
F|------------------------------------|
C|-4------2------12------7------9-----|
G|-4(x12)-2(x12)-12(x10)-7(x10)-9(x4)-|
C|-4------2------12------7------9-----|

D|-----------------------------------|
A|-----------------------------------|
F|---------------7------9------------|
C|-4------2------7(x10)-9(x10)-7-----|
G|-4(x12)-2(x12)-5------7------7(x4)-|
C|-4------2--------------------7-----|

D|------------------------------------|
A|------------------------------------|
F|------------------------------------|
C|-4------2------12------7------9-----|
G|-4(x12)-2(x12)-12(x10)-7(x10)-9(x4)-|
C|-4------2------12------7------9-----|

D|-----------------------------------|
A|-----------------------------------|
F|---------------7------9------------|
C|-4------2------7(x10)-9(x10)-7-----|
G|-4(x12)-2(x12)-5------7------7(x4)-|
C|-4------2--------------------7-----|

Fim
(x2)
D|---|
A|---|
F|---|
C|-4-|
G|-4-|
C|-4-|
Composição de Alexander Wesselsky / Jürgen Plangger / Noel Pix
Colaboração e revisão:
  • Fernando
59 exibições
    • ½ Tom
    • A
    • Bb
    • B
    • C
    • Db
    • D
    • Eb
    • E
    • F
    • F#
    • G
    • Ab
  • Adicionar à lista

    0 comentários

    Ver todos os comentários

    Conseguiu tocar?

    0 Tocaram 0 Ainda não

    Grave um vídeo tocando Böse Mädchen e nos envie!

    00:00 / 00:00
    outros vídeos desta música
    repetir qualidade Automático
    Outros vídeos desta música
    00:00 / 00:00
    Automático

    Cifra Club Pro

    Aproveite o Cifra Club com benefícios exclusivos e sem anúncios
    Cifra Club Pro
    Aproveite o Cifra Club com benefícios exclusivos e sem anúncios
    OK