Cifra Club

Aprenda

Komm Ssser Tod

Eisbrecher

Cifra: Principal (violão e guitarra)
tom: G
Intro/Chorus

E|--------------------------------------------------------------------|
B|--------------------------------------------------------------------|
G|--------------------------------------------------------------------|
D|22-2-22-2-22--222(2)-2222-2-22-------33-3-33-3-33--333(3)-3333-3-33-|
A|22-2-22-2-22--222(2)-2222-2-22-(x2)--33-3-33-3-33--333(3)-3333-3-33-|
E|00-0-00-0-00--000(0)-0000-0-00-------11-1-11-1-11--111(1)-1111-1-11-|

Chorus
(x2)
E|--------------------------------------------------------------------|
B|--------------------------------------------------------------------|
G|--------------------------------------------------------------------|
D|22-2-22-2-22--222(2)-2222-2-22-------33-3-33-3-33--333(3)-3333-3-33-|
A|22-2-22-2-22--222(2)-2222-2-22-(x2)--33-3-33-3-33--333(3)-3333-3-33-|
E|00-0-00-0-00--000(0)-0000-0-00-------11-1-11-1-11--111(1)-1111-1-11-|






Prechorus
(x4)
E|-------------------|
B|-------------------|
G|-------------------|
D|-22-2-22-----2-22--|
A|-22-2-22-----2-22--|
E|-00-0-00-----0-00--|
PM .. . ..     . ..
[ Tab from: http://www.guitaretab.com/e/eisbrecher/369922.html ]
Chorus
(x2)
E|--------------------------------------------------------------------|
B|--------------------------------------------------------------------|
G|--------------------------------------------------------------------|
D|22-2-22-2-22--222(2)-2222-2-22-------33-3-33-3-33--333(3)-3333-3-33-|
A|22-2-22-2-22--222(2)-2222-2-22-(x2)--33-3-33-3-33--333(3)-3333-3-33-|
E|00-0-00-0-00--000(0)-0000-0-00-------11-1-11-1-11--111(1)-1111-1-11-|

Interlude

E|-----------------------------------------------------------------|
B|-----------------------------------------------------------------|
G|-----------------------------------------------------------------|
D|22222222-2-2-222--22222222-2-2-34-22222222-2-2-222-22222222-4567-|
A|22222222-2-2-222--22222222-2-2-34-22222222-2-2-222-22222222-4567-|
E|00000000-0-0-000--00000000-0-0-12-00000000-0-0-000-00000000-2345-|

After Chorus
E|----------------------------------------------------|
B|----------------------------------------------------|
G|----------------------------------------------------|
D|22-2-22-2-22--222(2)-2222-2-22-------33-3-33-3-33---|
A|22-2-22-2-22--222(2)-2222-2-22-(x2)--33-3-33-3-33---|
E|00-0-00-0-00--000(0)-0000-0-00-------11-1-11-1-11---|

Chorus
(x2)
E|--------------------------------------------------------------------|
B|--------------------------------------------------------------------|
G|--------------------------------------------------------------------|
D|22-2-22-2-22--222(2)-2222-2-22-------33-3-33-3-33--333(3)-3333-3-33-|
A|22-2-22-2-22--222(2)-2222-2-22-(x2)--33-3-33-3-33--333(3)-3333-3-33-|
E|00-0-00-0-00--000(0)-0000-0-00-------11-1-11-1-11--111(1)-1111-1-11-|
Colaboração e revisão:
  • Fernando
12 exibições
    • ½ Tom
    • A
    • Bb
    • B
    • C
    • Db
    • D
    • Eb
    • E
    • F
    • F#
    • G
    • Ab
  • Adicionar à lista

    0 comentários

    Ver todos os comentários

    Conseguiu tocar?

    0 Tocaram 0 Ainda não

    Grave um vídeo tocando Komm Ssser Tod e nos envie!

    00:00 / 00:00
    outros vídeos desta música
    repetir qualidade Automático
    Outros vídeos desta música
    00:00 / 00:00
    Automático

    Cifra Club Pro

    Aproveite o Cifra Club com benefícios exclusivos e sem anúncios
    Cifra Club Pro
    Aproveite o Cifra Club com benefícios exclusivos e sem anúncios
    OK