Cifra Club

Aprenda

Prototyp

Eisbrecher

Cifra: Principal (violão e guitarra)
tom: C
Chorus

(x2)
D|-----------------------------------------------|
A|-----------------------------------------------|
F|-----------------------------------------------|
C|--5-5-5-5-5-5-5--5-5-5-5-5-5-7-7-7-7-7-7-7h8/2-|
G|--5-5-5-5-5-5-5--5-5-5-5-5-5-7-7-7-7-7-7-7h8/2-|
C|--5-5-5-5-5-5-5--5-5-5-5-5-5-7-7-7-7-7-7-7h8/2-|

D|----------------------------|
A|----------------------------|
F|----------------------------|
C|--2-2-0-2-2-0-2-2-0-2-2-0/5-|
G|--2-2-0-2-2-0-2-2-0-2-2-0/5-|
C|--2-2-0-2-2-0-2-2-0-2-2-0/5-|

(x1)
D|----------------------------------------------|
A|----------------------------------------------|
F|----------------------------------------------|
C|--5-5-5-5-5-5-5-5-5-5-5-5-5-7-7-7-7-7-7-7h8/2-|
G|--5-5-5-5-5-5-5-5-5-5-5-5-5-7-7-7-7-7-7-7h8/2-|
C|--5-5-5-5-5-5-5-5-5-5-5-5-5-7-7-7-7-7-7-7h8/2-|

D|--------------------------------|
A|--------------------------------|
F|--------------------------------|
C|--2222-0-2222-0-2222-0-2222-0/5-|
G|--2222-0-2222-0-2222-0-2222-0/5-|
C|--2222-0-2222-0-2222-0-2222-0/5-|
   PMPM   PMPM   PMPM   PMPM

(x2)
D|-----------------------------------------------|
A|-----------------------------------------------|
F|-----------------------------------------------|
C|--5-5-5-5-5-5-5--5-5-5-5-5-5-7-7-7-7-7-7-7h8/2-|
G|--5-5-5-5-5-5-5--5-5-5-5-5-5-7-7-7-7-7-7-7h8/2-|
C|--5-5-5-5-5-5-5--5-5-5-5-5-5-7-7-7-7-7-7-7h8/2-|

D|----------------------------|
A|----------------------------|
F|----------------------------|
C|--2-2-0-2-2-0-2-2-0-2-2-0/5-|
G|--2-2-0-2-2-0-2-2-0-2-2-0/5-|
C|--2-2-0-2-2-0-2-2-0-2-2-0/5-|

Prechorus
D|----------------------------------------------|
A|----------------------------------------------|
F|----------------------------------------------|
C|--2-2--2--5-5--5--7-7--7--5-5--5--2-2--2--xx2x|
G|--2-2--2--5-5--5--7-7--7--5-5--5--2-2--2--xx2x|
C|--2-2--2--5-5--5--7-7--7--5-5--5--2-2--2--xx2x|

Chorus

(x2)
D|-----------------------------------------------|
A|-----------------------------------------------|
F|-----------------------------------------------|
C|--5-5-5-5-5-5-5--5-5-5-5-5-5-7-7-7-7-7-7-7h8/2-|
G|--5-5-5-5-5-5-5--5-5-5-5-5-5-7-7-7-7-7-7-7h8/2-|
C|--5-5-5-5-5-5-5--5-5-5-5-5-5-7-7-7-7-7-7-7h8/2-|

D|----------------------------|
A|----------------------------|
F|----------------------------|
C|--2-2-0-2-2-0-2-2-0-2-2-0/5-|
G|--2-2-0-2-2-0-2-2-0-2-2-0/5-|
C|--2-2-0-2-2-0-2-2-0-2-2-0/5-|

(x1)
D|----------------------------------------------|
A|----------------------------------------------|
F|----------------------------------------------|
C|--5-5-5-5-5-5-5-5-5-5-5-5-5-7-7-7-7-7-7-7h8/2-|
G|--5-5-5-5-5-5-5-5-5-5-5-5-5-7-7-7-7-7-7-7h8/2-|
C|--5-5-5-5-5-5-5-5-5-5-5-5-5-7-7-7-7-7-7-7h8/2-|

D|--------------------------------|
A|--------------------------------|
F|--------------------------------|
C|--2222-0-2222-0-2222-0-2222-0/5-|
G|--2222-0-2222-0-2222-0-2222-0/5-|
C|--2222-0-2222-0-2222-0-2222-0/5-|
   PMPM   PMPM   PMPM   PMPM

(x2)
D|-----------------------------------------------|
A|-----------------------------------------------|
F|-----------------------------------------------|
C|--5-5-5-5-5-5-5--5-5-5-5-5-5-7-7-7-7-7-7-7h8/2-|
G|--5-5-5-5-5-5-5--5-5-5-5-5-5-7-7-7-7-7-7-7h8/2-|
C|--5-5-5-5-5-5-5--5-5-5-5-5-5-7-7-7-7-7-7-7h8/2-|

D|----------------------------|
A|----------------------------|
F|----------------------------|
C|--2-2-0-2-2-0-2-2-0-2-2-0/5-|
G|--2-2-0-2-2-0-2-2-0-2-2-0/5-|
C|--2-2-0-2-2-0-2-2-0-2-2-0/5-|

Interlude
D|------------------------------------------------------------------------|
A|------------------------------------------------------------------------|
F|------------------------------------------------------------------------|
C|-2-2--2---0-0--0---5-5--5---5-5--5---2-2--2---0-0--0---5-5--5---4-4--4--|
G|-2-2--2---0-0--0---5-5--5---5-5--5---2-2--2---0-0--0---5-5--5---4-4--4--|
C|-2-2--2---0-0--0---5-5--5---5-5--5---2-2--2---0-0--0---5-5--5---4-4--4--|

D|----------------------------------------------|
A|----------------------------------------------|
F|----------------------------------------------|
C|--0-0--0---5-5--5---5-5--5---2-2--2-----------|
G|--0-0--0---5-5--5---5-5--5---2-2--2-----------|
C|--0-0--0---5-5--5---5-5--5---2-2--2---5-5--5--|
                                       PMPMPM
Chorus
(x2)
D|-----------------------------------------------|
A|-----------------------------------------------|
F|-----------------------------------------------|
C|--5-5-5-5-5-5-5--5-5-5-5-5-5-7-7-7-7-7-7-7h8/2-|
G|--5-5-5-5-5-5-5--5-5-5-5-5-5-7-7-7-7-7-7-7h8/2-|
C|--5-5-5-5-5-5-5--5-5-5-5-5-5-7-7-7-7-7-7-7h8/2-|

D|----------------------------|
A|----------------------------|
F|----------------------------|
C|--2-2-0-2-2-0-2-2-0-2-2-0/5-|
G|--2-2-0-2-2-0-2-2-0-2-2-0/5-|
C|--2-2-0-2-2-0-2-2-0-2-2-0/5-|

(x1)
D|----------------------------------------------|
A|----------------------------------------------|
F|----------------------------------------------|
C|--5-5-5-5-5-5-5-5-5-5-5-5-5-7-7-7-7-7-7-7h8/2-|
G|--5-5-5-5-5-5-5-5-5-5-5-5-5-7-7-7-7-7-7-7h8/2-|
C|--5-5-5-5-5-5-5-5-5-5-5-5-5-7-7-7-7-7-7-7h8/2-|

D|--------------------------------|
A|--------------------------------|
F|--------------------------------|
C|--2222-0-2222-0-2222-0-2222-0/5-|
G|--2222-0-2222-0-2222-0-2222-0/5-|
C|--2222-0-2222-0-2222-0-2222-0/5-|
   PMPM   PMPM   PMPM   PMPM

(x2)
D|-----------------------------------------------|
A|-----------------------------------------------|
F|-----------------------------------------------|
C|--5-5-5-5-5-5-5--5-5-5-5-5-5-7-7-7-7-7-7-7h8/2-|
G|--5-5-5-5-5-5-5--5-5-5-5-5-5-7-7-7-7-7-7-7h8/2-|
C|--5-5-5-5-5-5-5--5-5-5-5-5-5-7-7-7-7-7-7-7h8/2-|

D|----------------------------|
A|----------------------------|
F|----------------------------|
C|--2-2-0-2-2-0-2-2-0-2-2-0/5-|
G|--2-2-0-2-2-0-2-2-0-2-2-0/5-|
C|--2-2-0-2-2-0-2-2-0-2-2-0/5-|

END
Colaboração e revisão:
  • Fernando
38 exibições
    • ½ Tom
    • A
    • Bb
    • B
    • C
    • Db
    • D
    • Eb
    • E
    • F
    • F#
    • G
    • Ab
  • Adicionar à lista

    0 comentários

    Ver todos os comentários

    Conseguiu tocar?

    0 Tocaram 0 Ainda não

    Grave um vídeo tocando Prototyp e nos envie!

    00:00 / 00:00
    outros vídeos desta música
    repetir qualidade Automático
    Outros vídeos desta música
    00:00 / 00:00
    Automático

    Cifra Club Pro

    Aproveite o Cifra Club com benefícios exclusivos e sem anúncios
    Cifra Club Pro
    Aproveite o Cifra Club com benefícios exclusivos e sem anúncios
    OK