Cifra Club

El Muchacho Chicho

El Tri

Cifra: Principal (violão e guitarra)
Selo Cifra Club: esta cifra foi revisada para atender aos critérios oficiais da nossa Equipe de Qualidade.
tom: C
Intro             /  seguimiento, pero con ritmo
E|-----------------/-----------------------/-----------------------------|
B|-----------------/-----------------------/-----------------------------|
G|-----------------/-----------------------/-----------------------------|
D|-----2--2--2--2--/-----------2--2--2| —-2--/-----------------2--2—-2—-2--
A|--3--0--0--0--0--/--3--5--3--0--0--0--0--/--3--0--3--0--3--0--0--0| —-0--
E|-----------------/-----------------------/-----------------------------|

después de que dice “para evitar un robo”
entra asi.
E|-------------------------------------------------------------------|
B|-------------------------------------------------------------------|
G|------------------------2--2--2--2--2--2--2---2--2--2--2--2--2--2--|
D|------------------------0--0--0--0--0--3--5---0--0--0--0--0--3--5--|
A|--0--0--2--2--3--3--5----------------------------------------------|
E|-------------------------------------------------------------------|

después cuando habla: pusi niñitos y se creen que todos estos rollos etc.

la segunda guitarra hace en pisadas quintas(5) esto.

E|--------------------------/--------------------------|
B|--------------------------/-------------5-5--7--5-5--|
G|-------------5-5--7--5-5--/--5--7--5-5--5-5--7--5-5--|
D|--5--6--7-7--5-5--7--5-5--/--5--7--5-5--3-3--5--3-3--|
A|--5--6--7-7--3-3--5--3-3--/--3--5--3-3---------------|
E|--3--4--5-5---------------/--------------------------|

este requinto no es muy exacto.

E|---------------------------------12bb--------------------------------|
B|---------------------------------------------------------------------|
G|---------------------------------------------------------------------|
3—11b-11b-11b-11b-11b-11b-11b-9-7-------------------------------------
E|---------------------------------------10-12-13-12-10---10-12-10-----|
B|-----------------------------------------------------------------12--|
                                          varias veces

E|--10----------10-/-----------/-------|
B|-----12-10-12----/-----------/-------|
G|-----------------/-| improvisan/-------
D|-----------------/-| le--------/--10v--
A|-----------------/--aq| ui-----/-------
E|-----------------/-----------/-------|
Outros vídeos desta música
    124 exibições
      • ½ Tom
      • A
      • Bb
      • B
      • C
      • Db
      • D
      • Eb
      • E
      • F
      • F#
      • G
      • Ab
    • Adicionar à lista

    Afinação da cifra

    Afinador online

      0 comentários

      Ver todos os comentários

      Entre para o Cifra Club PRO

      Tenha acesso a benefícios exclusivos no App e no Site

      • Chega de anúncios

      • Badges exclusivas

      • Mais recursos no app do Afinador

      • Atendimento Prioritário

      • Aumente seu limite de lista

      • Ajude a produzir mais conteúdo

      Cifra Club Pro

      Aproveite o Cifra Club com benefícios exclusivos e sem anúncios
      Cifra Club Pro
      Aproveite o Cifra Club com benefícios exclusivos e sem anúncios
      Ops (: Contenido disponible sólo en portugués.
      OK