Cifra Club

Newborn

Elbow

Cifra: Principal (violão e guitarra)
Selo Cifra Club: esta cifra foi revisada para atender aos critérios oficiais da nossa Equipe de Qualidade.
tom: D
E|-----------7p0--0--0--0--0-0-0-0-0-0----------------------------|
B|--------------5-0--0--0--0-0-0-0-0-0----------------------------|
G|---------------10-10-10-10-10-10-10-10\7-7-7\5-5-5/7-7-7\3-----|
D|----------------7--7--7--7-7-7-7-7-7--7\0-0-0\0-0-0/0-0-0\0-----|
A|----------------9--9--9--9-9-9-9-9-9--9\7-7-7\5-5-5/7-7-7\0-----|
E|----------------0--0--0--0-0-0-0-0-0--0\0-0-0\0-0-0/0-0-0\0-----|

   Useless.....
E|--0-0-0-0-0-0-0-0-0-0-0-0-0-0-0----|
B|--0-0-0-0-0-0-0-0-0-0-0-0-0-0-0----|
G|-3-0-0-0-0-0-0-0-0-0-0-0-0-0-0----| x2
D- 0-0-0-0-0-0-0-0-0-0-0-0-0-0-0----|
E|--0-0-0-0-0-0-0-0-0-0-0-0-0-0-0----|
B|--2h4-4-4-4-4-2/4-4-4-4-4-4p0-0----|

   I'll be  as...
E|-----------7p0--0--0--0--0-0-0-0-0-0----------------------------|
B|--------------5-0--0--0--0-0-0-0-0-0----------------------------|
G|---------------10-10-10-10-10-10-10-10\7-7-7\5-5-5/7-7-7\3-----|
D|----------------7--7--7--7-7-7-7-7-7--7\0-0-0\0-0-0/0-0-0\0-----|
A|----------------9--9--9--9-9-9-9-9-9--9\7-7-7\5-5-5/7-7-7\0-----|
E|----------------0--0--0--0-0-0-0-0-0--0\0-0-0\0-0-0/0-0-0\0-----|

  if you'd.....
E|--0-0-0-0-0-0-0-0-0-0-0-0-0-0-0-------|
B|--0-0-0-0-0-0-0-0-0-0-0-0-0-0-0-------|
G|-3-0-0-0-0-0-0-0-0-0-0-0-0-0-0-------| x2
D- 0-0-0-0-0-0-0-0-0-0-0-0-0-0-0-------|
E|--0-0-0-0-0-0-0-0-0-0-0-0-0-0-0-------|
B|--2h4-4-4-4-4-2/4-4-4-4-4-4p0-0-------|

Chorus:

E|--0-0-0-0-0-0-0-0-0-----------|
B|--0-0-0-0-0-0-0-0-0-----------|
G|-0-0-0-0-0-0-0-0-0-----------| x 4?
D|--2-2-2-2-0-0-0-0-0-----------|
A|--2-2-2-2-0-0-0-0-0-2-4-7-2-4-|
E|--2-2-2-2-0-0-0-0-0-0-0-0-0-0-|

Verse again|

then Chorus|

then THIS

E|-------0-----0----0-----0--|
B|-----0----0----0-----0-----|
G|--2----2---2-----2--------|
D|---------------------------|
A|---------------------------|
E|---------------------------|

Then he just plays this chord for the rest of the next verse;

E|------0-------------|
B|------0-------------|
G|-----0-------------|
D|------0-------------|
A|------0-------------|
E|------0-------------|

then back to the chorus

then he plays this for a long time as the keyboard plays some chords over it, until it 
to get a bit heavier, you'll hear for yourself.

E|-------0-----0----0-----0--|
B|-----0----0----0-----0-----|
G|--2----2---2-----2--------|
D|---------------------------|
A|---------------------------|
E|---------------------------|

then it's just this chord for the rest of the song

E|---0---|
B|---0---|
G|--2---|
D|-------|
A|-------|
E|-------|

it sounds good if you add some fills in like

E|------------------------|
B|------------------------|
G|-----------------------|
D|--0-0-0-0-0-0-0-0-0-----|
A|--2h4-4-4-4h5p4-2-4-----|
E|--0-0-0-0-0-0-0-0-0-----|
00:00 / 00:00
Outros vídeos desta música
Repetir
Outros vídeos desta música
1 exibições
    • ½ Tom
    • A
    • Bb
    • B
    • C
    • Db
    • D
    • Eb
    • E
    • F
    • F#
    • G
    • Ab
  • Adicionar à lista

Afinação da cifra

Afinador online

    0 comentários

    Ver todos os comentários

    Conseguiu tocar?

    0 Tocaram 0 Ainda não

    Grave um vídeo tocando Newborn e nos envie!

    Entre para oCifra Club PRO

    Tenha acesso a benefícios exclusivos no App e no Site

    • Chega de anúncios

    • Prioridade de compra em lançamentos

    • Mais recursos no app do Afinador

    • Atendimento Prioritário

    • Descontos nos produtos Cifra Club

    • Ajude a produzir mais conteúdo

    00:00 / 00:00

    Cifra Club Pro

    Aproveite o Cifra Club com benefícios exclusivos e sem anúncios
    Cifra Club Pro
    Aproveite o Cifra Club com benefícios exclusivos e sem anúncios
    OK