Cifra Club

Eu Sou

Eli Soares

Cifra: Principal (violão e guitarra)
exibições 104.405
Tom: A
Introdução:

(Guitarra 1)

  P.M. .      . .        . .        . .        .
E|-----------------------------------------------------|
B|-----------------------------------------------------|
G|---------------------------9-7~----------------------|  (3x)
D|-----9-7~----------------9--------9---7h9------7h9---|
A|---9--------9---7h9----7------------9--------9-------|
E|-7------------9--------------------------------------|

  P.M. .      . .      
E|-----------------------------------------------------|
B|-----------------------10-----10-----10--------------|
G|------------------------9h11---9h11---9h11p9\7-------|
D|-----9-7~--------------------------------------9-----|
A|---9--------9---7h9----------------------------------|
E|-7------------9--------------------------------------|

E|-----------------------------------------------------|
B|-10-----10-----10------------------------------------|
G|--9h11---9h11---9h11p9\7-----------------------------|
D|-------------------------9---------------------------|
A|-----------------------------------------------------|
E|-----------------------------------------------------|


Primeira Parte:

   Bm7(9)
E|-9--x-9-x-x-7--x-x-9--x-9-x-x-------------|
B|-7--x-7-x-x-7--x-x-7--x-7-x-x-------------|
G|-7--x-7-x-x-7--x-x-7--x-7-x-x-------------|
D|-7----------7------7----------------------|
A|------------------------------------------|
E|------------------------------------------|
   ↓  ↓ ↑ ↓ ↑ ↓  ↓ ↑ ↓  ↓ ↑ ↓ ↑

   E7(9)
E|-7--x-7-x-x-7--x-x-7--x-7-x-x-------------|
B|-7--x-7-x-x-7--x-x-7--x-7-x-x-------------|
G|-7--x-7-x-x-7--x-x-7--x-7-x-x-------------|
D|-6----------6------6----------------------|
A|------------------------------------------|
E|------------------------------------------|
   ↓  ↓ ↑ ↓ ↑ ↓  ↓ ↑ ↓  ↓ ↑ ↓ ↑

   Bm7(9)
E|-9--x-9-x-x-9--x-x-9--x-9-x-x-------------|
B|-7--x-7-x-x-7--x-x-7--x-7-x-x-------------|
G|-7--x-7-x-x-7--x-x-7--x-7-x-x-------------|
D|-7----------7------7----------------------|
A|------------------------------------------|
E|------------------------------------------|
   ↓  ↓ ↑ ↓ ↑ ↓  ↓ ↑ ↓  ↓ ↑ ↓ ↑

   E7(9)
E|-7--x-7-x-x-7---------x-7-x-x-------------|
B|-7--x-7-x-x-7---------x-7-x-x-------------|
G|-7--x-7-x-x-7---------x-7-x-x-------------|
D|-6----------6-----------------------------|
A|------------------------------------------|
E|------------------------------------------|
   ↓  ↓ ↑ ↓ ↑ ↓         ↓ ↑ ↓ ↑

                    Bm9
Eu sou mais que vencedor
                   E7(9)
Eu sou resposta de oração
                     Bm9
A minha mãe sempre orava
                               E7(9)
Dizendo: "meu Deus, tem misericórdia"

   Bm7(9)
E|-9--x-9-x-x-------9---x-9-x-x-------------|
B|-7--x-7-x-x-------7---x-7-x-x-------------|
G|-7--x-7-x-x-------7---x-7-x-x-------------|
D|-7----------6--7--7-----------------------|
A|------------------------------------------|
E|------------------------------------------|
   ↓  ↓ ↑ ↓ ↑ ↓  ↓  ↓   ↓ ↑ ↓ ↑

   E7(9)
E|-7--x-7-x-x-------7---x-7-x-x-------------|
B|-7--x-7-x-x-------7---x-7-x-x-------------|
G|-7--x-7-x-x-------7---x-7-x-x-------------|
D|-6----------5--6--6-----------------------|
A|------------------------------------------|
E|------------------------------------------|
   ↓  ↓ ↑ ↓ ↑ ↓  ↓  ↓   ↓ ↑ ↓ ↑

                Bm7(9)
Aí, Jesus me encontrou
               E7(9)
Me lavou com graça e glória
               Bm7(9)
Tirou meu cativeiro
                           E7(9)
Me deu novas vestes de louvor 

Pra cantar

                
                    Bm7(9)
Eu sou mais que vencedor
                   E7(9)
Eu sou resposta de oração
                     Bm7(9)
A minha mãe sempre orava
                               E7(9)
Dizendo: "meu Deus, tem misericórdia"
                Bm7(9)
Aí, Jesus me encontrou
               E7(9)
Me lavou com graça e glória
               Bm7(9)
Tirou meu cativeiro
                           E7(9)
Me deu novas vestes de louvor 

Pra cantar


Refrão:

E|-----------------------------------------------------|
B|-----------------------------------------------------|
G|--------7--------------------------------------------|
D|-7h9--x---x-x-7--------------------------------------|
A|-----------------------------------------------------|
E|-----------------------------------------------------|


Eu sou 

O que a Bíblia diz que eu sou

Eu tenho o que a Bíblia diz 

Que eu tenho

Eu faço o que a Bíblia diz 

Que eu posso fazer

Eu sou 

O que a Bíblia diz que eu sou

Eu tenho o que a Bíblia diz 

Que eu tenho

Eu faço o que a Bíblia diz 

Que eu posso fazer


Interlúdio:

  P.M. .      . .        . .        . .        .
E|-----------------------------------------------------|
B|-----------------------------------------------------|
G|---------------------------9-7~----------------------|
D|-----9-7~----------------9--------9---7h9------7h9---|
A|---9--------9---7h9----7------------9--------9-------|
E|-7------------9--------------------------------------|

  P.M. .      . .      
E|-----------------------------------------------------|
B|-----------------------10-----10-----10--------------|
G|------------------------9h11---9h11---9h11p9\7-------|
D|-----9-7~--------------------------------------9-----|
A|---9--------9---7h9----------------------------------|
E|-7------------9--------------------------------------|

E|-----------------------------------------------------|
B|-10-----10-----10------------------------------------|
G|--9h11---9h11---9h11p9\7-----------------------------|
D|-------------------------9---------------------------|
A|-----------------------------------------------------|
E|-----------------------------------------------------|


Segunda Parte:

                      Bm7(9)
Eu sou mais que vencedor
                   E7(9)
Eu sou resposta de oração
                     Bm7(9)
A minha mãe sempre orava
                               E7(9)
Dizendo: "meu Deus, tem misericórdia"
                Bm7(9)
Aí, Jesus me encontrou
               E7(9)
Me lavou com graça e glória
               Bm7(9)
Tirou meu cativeiro
                           E7(9)
Me deu novas vestes de louvor 

Pra cantar

                
                         Bm7(9)
Eu sou mais que vencedor
                   E7(9)
Eu sou resposta de oração
                     Bm7(9)
A minha mãe sempre orava
                               E7(9)
Dizendo: "meu Deus, tem misericórdia"
                Bm7(9)
Aí, Jesus me encontrou
               E7(9)
Me lavou com graça e glória
               Bm7(9)
Tirou meu cativeiro
                           E7(9)
Me deu novas vestes de louvor 

Pra cantar


Refrão:


Eu sou 

O que a Bíblia diz que eu sou

Eu tenho o que a Bíblia diz 

Que eu tenho

Eu faço o que a Bíblia diz 

Que eu posso fazer

Eu sou 

O que a Bíblia diz que eu sou

Eu tenho o que a Bíblia diz 

Que eu tenho

Eu faço o que a Bíblia diz 

Que eu posso fazer


Ponte: B5  C#5  E5  D5


Refrão:


Eu sou 

O que a Bíblia diz que eu sou

Eu tenho o que a Bíblia diz 

Que eu tenho

Eu faço o que a Bíblia diz 

Que eu posso fazer

Eu sou 

O que a Bíblia diz que eu sou

Eu tenho o que a Bíblia diz 

Que eu tenho

Eu faço o que a Bíblia diz 

Que eu posso fazer

Eu sou o que a Bíblia diz que eu sou


Final:

  P.M. .      . .        . .        . .        .
E|-----------------------------------------------------|
B|-----------------------------------------------------|
G|---------------------------9-7~----------------------| 
D|-----9-7~----------------9--------9---7h9------7h9---|
A|---9--------9---7h9----7------------9--------9-------|
E|-7------------9--------------------------------------|

  P.M. .      . .      
E|-----------------------------------------------------|
B|-----------------------10-----10-----10--------------|
G|------------------------9h11---9h11---9h11p9\7-------|
D|-----9-7~--------------------------------------9-----|
A|---9--------9---7h9----------------------------------|
E|-7------------9--------------------------------------|

E|-----------------------------------------------------|
B|10-----10-----10------------10-----10-----10---------|
G|-9h11---9h11---9h11p9\7------9h11---9h11---9h11p9\7--|
D|------------------------9---------------------------9|
A|-----------------------------------------------------|
E|-----------------------------------------------------|
Acordes para:
    Composição: Eli Soares Colaboração e revisão:

    0 comentários

    mostrar mais comentários

    Conseguiu tocar?

    6 tocaram 0 ainda não

    Grave um vídeo tocando Eu Sou e mande pra gente!

    00:00 / 00:00
    outros vídeos desta música
    repetir qualidade Automático
    Outros vídeos desta música
    00:00 / 00:00
    Automático
    Capítulos
    • Tocando a música
    • Apresentação / Equipamentos
    • Configurações dos pedais
    • Dicas iniciais
    • Tocando Introdução
    • Introdução - Riff 1
    • Acordes Primeira Parte
    • Tocando Primeira Parte
    • Primeira Parte - Parte 1 de 2
    • Primeira Parte - Parte 2 de 2
    • Dicas do Refrão
    • Tocando Refrão
    • Refrão - Padrão
    • Acordes da Ponte
    • Tocando Ponte
    • Ponte (Guitarra base)
    • Ponte (Guitarra solo)
    • Encerramento
    OK